PrimaNota.ru - самый крупный в мире бесплатный архив песенных текстов, аккордов, табулатур и нот


Dimension Zero - Your Darkest Hour - текст песни, таба, видео

Регистрация Запомнить меня
Войти через:  Facebook Google Twitter Vk Yandex Mail.ru

Dimension Zero - Your Darkest Hour - текст песни, таба, видео

Печатать
Просмотров: 134
Авторы музыки: Glenn Ljungström, Jesper Strömblad, Hans Nilsson
Авторы текста: Jocke Göthberg
Author/Artist: DIMENSION ZERO
Title: Your Darkest Hour
Album: SILENT NIGHT FEVER
Transcribed by: Hakuja
URL: http://funeralelegy.net/fw/
Email: hakuja@jiten.ne.jp

Ver. 1.00(02/06/01)

Tuning : 2 down

*** time - 0:00
Part_0
#|--0-----------2p0---|--------------------|#
#|--0-----------------|------0---1---3-----|#
#|--------------------|--2-----------------|#
#|--------------------|--------------------|#
#|--------------------|--------------------|#
#|--------------------|--------------------|#
    1   2   3   4        1   2   3   4     (End of Part_0)


*** time - 0:03
Part_A
  Repeat it 2 times.
#||---------------------|--------------------|--------------------|--------------------|
#||---------------------|--------------------|--------------------|--------------------|
#||o--------------------|--------------------|--------------------|--------9-7---------|
#||o--7---7---10--9-----|--12--10--14----15^^^^^15--12--14--10----|------------109-----|
#||-----0---0---0---0---|----0---0---0-0-----|----0---0---0---0---|--7-9-10--------10--|
#||---------------------|--------------------|--------------------|--------------------|
 ||   1   2   3   4     |  1   2   3   4     |  1   2   3   4     |  1   2   3   4     |
 ||                     |                    |                    |                    |
 ||                     |                    |                    |                    |
#||---------------------|--------------------|--------------------|--------------------|
#||---------------------|--------------------|--------------------|--------------------|
#||o--------------------|--------------------|--------------------|--------------------|
#||o--2-2-2-2-2-2-2-2---|----2-2-2---2-2-2---|--2-2-2-2-2-2-2-2---|----------5-5-5-5---|
#||---0-0-0-0-0-0-0-0---|----0-0-0---0-0-0---|--0-0-0-0-0-0-0-0---|--2-2-2-2-3-3-3-3---|
#||---------------------|--------------------|--------------------|--0-0-0-0-----------|
      1   2   3   4        1   2   3   4        1   2   3   4        1   2   3   4   


|--------------------|--------------------|--------------------|---------------------||#
|--------------------|--------------------|----p---------------|---------------------||#
|--------------------|----------------10^^^^^109-----9---------|--------------------o||#
|--7---7---10--9-----|--12--10--14--------|------1210--12109---|--12109---109-------o||#
|----0---0---0---0---|----0---0---0-0-----|--------------------|--------12----1210---||#
|--------------------|--------------------|--------------------|---------------------||#
|  1   2   3   4     |  1   2   3   4     |  1   2   3   4     |  1   2   3   4      ||
|                    |                    |                    |                     ||
|                    |                    |                    |                     ||
|--------------------|--------------------|--------------------|---------------------||#
|--------------------|--------------------|--------------------|---------------------||#
|--------------------|--------------------|--------------------|--------------------o||#
|--2-2-2-2-2-2-2-2---|----2-2-2---2-2-2---|--7-----------------|--5-----------------o||#
|--0-0-0-0-0-0-0-0---|----0-0-0---0-0-0---|--5-----------------|--3-------5----------||#
|--------------------|--------------------|--------------------|----------3----------||#
   1   2   3   4        1   2   3   4        1   2   3   4        1   2   3   4     (End of Part_A)


*** time - 0:20
Part_B
  Repeat it 4 times.
#||---------------------|---------------------|--------------------|--------------------|
#||---------------------|---------------------|--------------------|--------------------|
#||o--------------------|---------------_3_---|--------------------|--------------------|
#||o--------------------|------p-------|-|-|--|--------------------|------p-------------|
#||---7-----------------|----109---12--101210-|--7-----------------|----109-------------|
#||-------0-0-0-0-0-0---|--0-----0-------h-p--|------0-0-0-0-0-0---|--0-----0-8---7-----|
 ||   1   2   3   4     |  1   2   3   4      |  1   2   3   4     |  1   2   3   4     |
 ||                     |                     |                    |                    |
 ||                     |                     |                    |                    |
#||---------------------|---------------------|--------------------|--------------------|
#||---------------------|---------------------|--------------------|--------------------|
#||o--------------------|---------------_3_---|--------------------|--------------------|
#||o--------------------|--------------|-|-|--|--------------------|------p-------------|
#||---7-----------------|----9p7---10--9-109--|--7-----------------|----109-------6-----|
#||-------0-0-0-0-0-0---|--0-----0-------h-p--|------0-0-0-0-0-0---|--0-----0-8---------|
      1   2   3   4        1   2   3   4         1   2   3   4        1   2   3   4   


|--------------------|---------------------|--------------------|---------------------||#
|--------------------|---------------------|--------------------|---------------------||#
|--------------------|---------------_3_---|--------------------|--------------------o||#
|--------------------|------p-------|-|-|--|--------------------|--------------------o||#
|--7-----------------|----109---12--101210-|--------------------|---------------------||#
|------0-0-0-0-0-0---|--0-----0-------h-p--|--5-5-5-5-7-7-7-7---|--8-8-8-8-10101010---||#
|  1   2   3   4     |  1   2   3   4      |  1   2   3   4     |  1   2   3   4      ||
|                    |                     |                    |                     ||
|                    |                     |                    |                     ||
|--------------------|---------------------|--------------------|---------------------||#
|--------------------|---------------------|--------------------|---------------------||#
|--------------------|---------------_3_---|--------------------|--------------------o||#
|--------------------|--------------|-|-|--|--------------------|--------------------o||#
|--7-----------------|----9p7---10--9-109--|--3-3-3-3-5-5-5-5---|--7-7-7-7-9-9-9-9----||#
|------0-0-0-0-0-0---|--0-----0-------h-p--|--------------------|---------------------||#
   1   2   3   4        1   2   3   4         1   2   3   4        1   2   3   4     (End of Part_B)


*** time - 0:52
Part_C
  Repeat it 2 times.
#||---------------------|--------------------|--------------------|---------------------||#
#||---------------------|--------------------|--------------------|---------------------||#
#||o--------------------|--------------------|--------------------|--------------------o||#
#||o--------------------|--------------------|--------------------|--------------------o||#
#||---------------------|--------------------|--------------------|--5-----5-----5------||#
#||---2-2-2-2-2-2-2-2---|--2-2-2-2-2p0-5p0---|--2-2-2-2-2-2-2-2---|----2-2---2-2---2----||#
      1   2   3   4        1   2   3   4        1   2   3   4        1   2   3   4     (End of Part_C)


*** time - 1:01
Play Part_B
  Repeat it 2 times.



*** time - 1:17
Part_C'
#|--------------------|--------------------|--------------------|--------------------|
#|--------------------|--------------------|--------------------|--------------------|
#|--------------------|--------------------|--------------------|--------------------|
#|--------------------|--------------------|--------------------|--------------------|
#|--------------------|--------------------|--------------------|--5-----5-----5-----|
#|--2-2-2-2-2-2-2-2---|--2-2-2-2-2p0-5p0---|--2-2-2-2-2-2-2-2---|----2-2---2-2---2---|
    1   2   3   4        1   2   3   4        1   2   3   4        1   2   3   4      


|--------------------|--------------------|--------------------|--------------------|#
|--------------------|--------------------|--------------------|--------------------|#
|--------------------|--------------------|--------------------|--------------------|#
|--------------------|--------------------|--------------------|--2-----------------|#
|--------------------|--------------------|--------------------|--0-----------------|#
|--2-2-2-2-2-2-2-2---|--2-2-2-2-2p0-5p0---|--2-2-2-2-2-2-2-2---|--------------------|#
   1   2   3   4        1   2   3   4        1   2   3   4        1   2   3   4     (End Of Part_C')


*** time - 1:26
Part_D
  Repeat it 2 times.
#||---------------------|--------------------|--------------------|--------------------|
#||---------------------|--------------------|--------------7-----|--8-----7-----------|
#||o--4-----7-----7-----|--7-----6-----7-----|--------9-----------|--------------9-----|
#||o--------------------|--------------------|--7-----------------|--------------------|
#||---------------------|--------------------|--------------------|--------------------|
#||---------------------|--------------------|--------------------|--------------------|
 ||   1   2   3   4     |  1   2   3   4     |  1   2   3   4     |  1   2   3   4     |
 ||                     |                    |                    |                    |
 ||                     |                    |                    |                    |
#||---------------------|--------------------|--------------------|--------------------|
#||---------------------|--------------------|--------------------|--------------------|
#||o--------------------|--------------------|--------------------|--------4-----2-----|
#||o--------4-----5-----|--------4-----5-----|--------2-----4-----|--------------------|
#||---2-----------------|--------------------|--0-----------------|--------------------|
#||---------------------|--3-----------------|--------------------|--0-----------------|
      1   2   3   4        1   2   3   4        1   2   3   4        1   2   3   4  


|--------------------|--------------------|--------------------|---------------------||#
|--------------------|--------------------|--------------7-----|--8-----7------------||#
|--4-----7-----7-----|--7-----6-----7-----|--------9-----------|--------------------o||#
|--------------------|--------------------|--7-----------------|--------------------o||#
|--------------------|--------------------|--------------------|---------------------||#
|--------------------|--------------------|--------------------|---------------------||#
|  1   2   3   4     |  1   2   3   4     |  1   2   3   4     |  1   2   3   4      || 
|                    |                    |                    |                     || 
|                    |                    |                    |                     || 
|--------------------|--------------------|--------------------|---------------------||#
|--------------------|--------------------|--------------------|---------------------||#
|--------------------|--------------------|--------------------|--------------------o||#
|--------4-----5-----|--------4-----5-----|--------2-----4-----|--------------------o||#
|--2-----------------|--------------------|--0-----------------|---------------------||#
|--------------------|--3-----------------|--------------------|--0------------------||#
   1   2   3   4        1   2   3   4        1   2   3   4        1   2   3   4      (End Of Part_D)   


*** time - 0:03
Part_E
  Repeat it 2 times.
#||---------------------|--------------------|--------------------|--------------------|
#||---------------------|--------------------|--------------------|--------------------|
#||o--------------------|--------------------|--------------------|--------------------|
#||o--------------------|--------------------|--------------------|--------9-7---------|
#||---7---7---10--9-----|--12--10--14----15^^^^^15--12--14--10----|------------109-----|
#||-----0---0---0---0---|----0---0---0-0-----|----0---0---0---0---|--7-9-10--------10--|
 ||   1   2   3   4     |  1   2   3   4     |  1   2   3   4     |  1   2   3   4     |
 ||                     |                    |                    |                    |
 ||                     |                    |                    |                    |
#||---------------------|--------------------|--------------------|--------------------|
#||---------------------|--------------------|--------------------|--------------------|
#||o--------------------|--------------------|--------------------|--------------------|
#||o--9-9-9-9-9-9-9-9---|----9-9-9---9-9-9---|--9-9-9-9-9-9-9-9---|----------12121212--|
#||---7-7-7-7-7-7-7-7---|----7-7-7---7-7-7---|--7-7-7-7-7-7-7-7---|--1010101010101010--|
#||---------------------|--------------------|--------------------|--8-8-8-8-----------|
      1   2   3   4        1   2   3   4        1   2   3   4        1   2   3   4   


|--------------------|--------------------|--------------------|---------------------||#
|--------------------|--------------------|--------------------|---------------------||#
|--------------------|--------------------|----p---------------|--------------------o||#
|--------------------|----------------10^^^^^109-----9---------|--------------------o||#
|--7---7---10--9-----|--12--10--14--------|------1210--12109---|--12109---109--------||#
|----0---0---0---0---|----0---0---0-0-----|--------------------|--------12----1210---||#
|  1   2   3   4     |  1   2   3   4     |  1   2   3   4     |  1   2   3   4      ||
|                    |                    |                    |                     ||
|                    |                    |                    |                     ||
|--------------------|--------------------|--------------------|---------------------||#
|--------------------|--------------------|--------------------|---------------------||#
|--------------------|--------------------|--------------------|--------------------o||#
|--9-9-9-9-9-9-9-9---|----9-9-9---9-9-9---|--14----------------|--12----------------o||#
|--7-7-7-7-7-7-7-7---|----7-7-7---7-7-7---|--12----------------|--10------12---------||#
|--------------------|--------------------|--------------------|----------10---------||#
   1   2   3   4        1   2   3   4        1   2   3   4        1   2   3   4     (End of Part_E)


*** time - 1:59
Play Part_B
  Repeat it 2 times.


*** time - 2:15
Play Part_C'


*** time - 2:24
Play Part_D
  Repeat it 2 times.



*** time - 2:41
Part_F
  Repeat it 4 times.
#||---------------------|--------|--------------------|-------------------------||#
#||---------------------|--------|--------------------|---_3_-------_3_---------||#
#||o--------------------|--o-/---|--------------------|--|-|-|-----|-|-|-------o||#
#||o--------------------|---/-o--|--------------------|--5-5-5-5---8-8-8-8-----o||#
#||---10----8---7-------|--------|--8-----7---5-------|--3-3-3-3---6-6-6-6------||#
#||-----0-0---0---0-7---|--------|----0-0---0---0-0---|-------------------------||#
      1   2   3   4                 1   2   3   4        1     2   3     4     (End of Part_F)


*** time - 2:57
Part_G
  Repeat it 2 times.
#||---------------------|--------------------|--------------------|---------------------||#
#||---------------------|--------------------|--------------------|---------------------||#
#||o--------------------|--------------------|--------------------|--------------------o||#
#||o--------------------|--------------------|--------------------|--------------------o||#
#||---7---------5-7-8---|------7---8---10----|--7---------8-7-5---|------2---3---6------||#
#||-----0-7-0-0---------|--0-0---0---0---0---|----0-7-0-0---------|--0-0---0---0---0----||#
      1   2   3   4        1   2   3   4        1   2   3   4        1   2   3   4      (End of Part_G)


*** time - 3:05
Play Part_F
  Repeat it 4 times.



*** time - 3:13
Part_B'
#|--------------------|---------------------|--------------------|--------------------|#
#|--------------------|---------------------|--------------------|--------------------|#
#|--------------------|---------------_3_---|--------------------|--------------------|#
#|--------------------|------p-------|-|-|--|--------------------|--------------------|#
#|--7-----------------|----109---12--101210-|--------------------|--------------------|#
#|------0-0-0-0-0-0---|--0-----0-------h-p--|--5-5-5-5-7-7-7-7---|--8-8-8-8-10101010--|#
 |  1   2   3   4     |  1   2   3   4      |  1   2   3   4     |  1   2   3   4     |
 |                    |                     |                    |                    |
 |                    |                     |                    |                    |
#|--------------------|---------------------|--------------------|--------------------|#
#|--------------------|---------------------|--------------------|--------------------|#
#|--------------------|---------------_3_---|--------------------|--------------------|#
#|--------------------|--------------|-|-|--|--------------------|--------------------|#
#|--7-----------------|----9p7---10--9-109--|--3-3-3-3-5-5-5-5---|--7-7-7-7-9-9-9-9---|#
#|------0-0-0-0-0-0---|--0-----0-------h-p--|--------------------|--------------------|#
    1   2   3   4        1   2   3   4         1   2   3   4        1   2   3   4     (End of Part_B')


*** time - 3:17
Play Part_D
  Repeat it 4 times.
Добавлено: 27.05.2012
Вам также может быть интересно:
Другие материалы по этой песне:

Страница создана 12.03.2012
http://primanota.ru/dimension-zero/your-darkest-hour-chords.htm
Привет, Гость.
Предлагаем пройти революционный курс по гитаре.
Подарок от PrimaNota.Ru, забирай!