PrimaNota.ru - самый крупный в мире бесплатный архив песенных текстов, аккордов, табулатур и нот


Dimension Zero - Through The Virgin Sky - текст песни, таба, видео

Регистрация Запомнить меня
Войти через:  Facebook Google Twitter Vk Yandex Mail.ru

Dimension Zero - Through The Virgin Sky - текст песни, таба, видео

Печатать
Просмотров: 172
Авторы музыки: Glenn Ljungström, Jesper Strömblad, Hans Nilsson
Авторы текста: Jocke Göthberg
Author/Artist: Dimension Zero
Title: Through The Virgin Sky
Album: PENETRATIONS FROM THE LOST WORLD
Transcribed by: Hakuja
URL: http://funeralelegy.net/fw/
Email: hakuja@jiten.ne.jp

Ver. 0.9 (02/04/17)

Explanation of a sign
        h : hammer on             p : pull on
        g : grissando             s : slide
        c,hc,1hc : bend           ^ : tie

Tuning : 1 and half down

*** time - 0:01
Part_A
  Repeat it 2 times.
#||---------------------------------------|-------------------------------------|
#||---------------------------------------|-------------------------------------|
#||o--9-----------------------------------|-------------------------------------|
#||o--9-----------------------------------|-------------------------------------|
#||---7-----------------------------------|--9--h10------------10-h12-----------|
#||------------0---0----0---0----0---0----|-----------0---0-------------0---0---|
      1        2        3        4           1        2        3        4


|--------------------------------------|---------------------------------------|
|--------------------------------------|---------------------------------------|
|------------------------------------o-//--------------------------------------|
|-------------------------------------//-o-------------------------------------|
|--------------------------------------|---------------------------------------|
|--------------------------------------|---------------------------------------|
   1        2        3        4           1        2        3        4


|--------------------------------------|---------------------------------------|
|--------------------------------------|---------------------------------------|
|--------------------------------------|---------------------------------------|
|--------------------------------------|---------------------------------------|
|-----------------------------10--10---|---------------------------------------|
|--10--10---8---8----8---8-------------|--8---8----8---8----11--11---8---8-----|
   1        2        3        4           1        2        3        4


|--------------------------------------|----------------------------------------||#
|--------------------------------------|----------------------------------------||#
|--------------------------------------|---__3__----__3__----__3__----__3__----o||#
|--------------------------------------|--|--|--|--|--|--|--|--|--|--|--|--|---o||#
|-----------10--10---------------------|--7--7--7--7--7--7--9--9--9--9--9--9----||#
|--8---8-------------7---7----7---7----|----------------------------------------||#
   1        2        3        4           1        2        3        4    (End of Part_A)



*** time - 0:15
Part_B
  Repeat it 2 times.
#||---------------------------------------|--------------------------------------|
#||---------------------------------------|--------------------------------------|
#||o--9------------10------------9--------|--------------------------------------|
#||o--9------------10------------9--------|--------------------------------------|
#||---7------------8-------------7--------|------6-6------1010-9-9------7-7-9-9--|
#||------------0---------------------0-0--|--0-0------7-7----------7-7-----------|
      1        2        3        4           1        2        3        4


|--------------------------------------|----------------------------------------||#
|--------------------------------------|----------------------------------------||#
|--9------------10---------------------|---------------------------------------o||#
|--9------------10---------------------|------8----7------------3--------5-----o||#
|--7------------8----------------------|------8----7------------3--------5------||#
|-----------0-----------------0---0-0--|--0-0-6----5---0-0--0-0-1----0-0-3------||#
   1        2        3        4           1        2        3        4    (End of Part_B)




*** time - 0:28
Play Part_A
  Repeat it 2 time.


*** time - 0:55
Part_C
  Repeat it 4 times.
#||---------------------------------------|----------------------------------------||#
#||---------------------------------------|----------------------------------------||#
#||o--------------------------------------|---------------------------------------o||#
#||o--9---7--------7----------------------|---------------------------------7-----o||#
#||------------10-----------10---9--------|-----------7------------9----10---------||#
#||----------------------------------8----|------10-------10-----------------------||#
      1        2        3        4           1        2        3        4    (End of Part_C)



*** time - 1:08
Play Part_B
  Repeat it 2 times.



*** time - 1:21
Play Part_A
  Repeat it 2 times.



*** time - 1:33
Play Part_C
  Repeat it 4 times.



*** time - 1:46
Play Part_B
  Repeat 2 times.



*** time - 1:59
Part_D
#|--------------------------------------|---------------------------------------|
#|--------------------------------------|-----------15--------------------------|
#|--9c-------d--------------------------|------12-------14c------dp12-14--------|
#|---------------9----------------s7----|-g14-----------------------------------|
#|--------------------------------------|---------------------------------------|
#|--------------------------------------|---------------------------------------|
    1        2        3        4           1        2        3        4


|-----3----------------3--------------------17--|--19201917-----------------------------|
|--|==|==|----------|==|==|-----------171920----|-----------201917----------------------|
|--11h12p11--11-121416h17p16---161719-----------|-----------------19-17h1916------1412--|
|----------14----------------19-----------------|---------------------------------------|
|-----------------------------------------------|---------------------------------------|
|-----------------------------------------------|---------------------------------------|
   1            2            3        4            1        2        3        4


|-----------------------------x---22c--|------d-----------------22-------------|
|--------------------------------------|-----------19--20c-----------20--------|
|--11------12p11-----------------------|---------------------------------19----|
|---------------14---------------------|---------------------------------------|
|--------------------------------------|---------------------------------------|
|--------------------------------------|---------------------------------------|
   1        2        3        4           1        2        3        4


|--------------------------------------|---------------------------------------|
|---------------------------------12---|--c---d--------------------------------|
|--c--------19---19-------d------------|-----------14--12------------11--------|
|--------------------------------------|---------------------------------------|
|--------------------------------------|---------------------------------------|
|--------------------------------------|---------------------------------------|
   1        2        3        4           1        2        3        4

                                                                        
|-------------------------------------------|-----3-------------------------------12141517--|
|-------------------------------------------|--|==|==|----------12h13p12---121315-----------|
|------------------3------------------------|--11h12p11--11-1214|==|==|--14-----------------|
|---------------|==|==|---------------1214--|----------14----------3------------------------|
|-------------1214h15p14-1412--12-1415------|-----------------------------------------------|
|--14--1414-15---------------15-------------|-----------------------------------------------|
   1        2            3        4            1            2            3        4          


|--17c------dp1514----------------22---|--c---d----20-p19---20-p17---15--------|
|------------------------15------------|---------------------------------------|
|--------------------------------------|---------------------------------------|
|--------------------------------------|---------------------------------------|
|--------------------------------------|---------------------------------------|
|--------------------------------------|---------------------------------------|
   1        2        3        4           1        2        3        4


|-----------15-------------------------|-----------15--------------------------|
|--18c----------18c--------------------|--17c----------17----------------15c---|
|--------------------------------------|---------------------------------------|
|--------------------------------------|---------------------------------------|
|--------------------------------------|---------------------------------------|
|--------------------------------------|---------------------------------------|
   1        2        3        4           1        2        3        4


|--------------------------------------|---------------------------------------|
|--18c------15--15---15--d--------12---|--c---d--------------------------------|
|--------------------------------------|-----------14--12------------11--------|
|--------------------------------------|---------------------------------------|
|--------------------------------------|---------------------------------------|
|--------------------------------------|---------------------------------------|
   1        2        3        4           1        2        3        4


  Repeat it 2 times.
||----------------------------------------|---------------------------------------|
||-----------------------1719-------1517--|---------------------------------------|
||o--------14-16-------19-----------------|--16-----------------------------------|
||o------17-------------------------------|---------------------------------------|
||----------------------------------------|---------------------------------------|
||----------------------------------------|---------------------------------------|
     1        2        3        4            1        2        3        4


|-----------------------------------17--|--19------------------------------------||
|------------------------1719-----20----|------20c--d---19------g17---15---------||
|----------14-16-------19---------------|---------------------------------------o||
|--------17-----------------------------|---------------------------------------o||
|---------------------------------------|----------------------------------------||
|---------------------------------------|----------------------------------------||
   1        2        3        4            1        2        3        4            


  Repeat it 2 times.
||-------------------------------------------|---------------------------------------|
||-------------------------------------------|---------------------------------------|
||o------14s16-16--1616-16s1111---111111s12--|--12-----------14c------dp12-14--------|
||o------------------------------------------|---------------------------------------|
||-------------------------------------------|---------------------------------------|
||-------------------------------------------|---------------------------------------|
     1         2        3         4             1        2        3        4


|-----------------------------------10h12p10--|----------------------------------------||#
|-----------------------------------|==|==|---|--131210--------------------------------||#
|------14s16-16--1616-16s1111----------3------|--------12-119-------------------------o||#
|---------------------------------------------|---------------1210-9-109----9---------o||#
|---------------------------------------------|--------------------------12---12109----||#
|---------------------------------------------|----------------------------------------||#
   1        2        3        4                  1        2        3        4  (End of Part_D)



*** time - 2:49
Part_E
  Repeat it 2 times.
#||------------------|--------------------|--------------------|-------------------||#
#||------------------|--------------------|--------------------|-------------------||#
#||o-----------------|--------------------|--------------------|------------------o||#
#||o-----------------|--------------------|--------------------|------------------o||#
#||---2--------------|--------------------|--------------------|-------------------||#
#||---0--------------|--------------------|--------------------|-------------------||#
                                                                             (End of Part_E)



*** time - 3:05
Part_F
  Repeat it 2 times.
#||---------------------------------------|---------------------------------------|
#||---------------------------------------|---------------------------------------|
#||o--------------------------------------|---------------------------------------|
#||o--------------------------------------|---------------------------------------|
#||---2------------3--------6--------5----|--2------------9--------8--------5-----|
#||---0---0----0---1----0---4----0---3----|--0---0----0---7----0---6----0---3-----|
      1        2        3        4           1        2        3        4


|--------------------------------------|----------------------------------------||#
|--------------------------------------|----------------------------------------||#
|--------------------------------------|---------------------------------------o||#
|--------------------------------------|-----------------------------5--s7-----o||#
|--2------------3--------6--------5----|--2--------------------------3--s5------||#
|--0---0----0---1----0---4----0---3----|--0---0----0-0-0----0---0---------------||#
   1        2        3        4           1        2        3        4    (End of Part_F)



*** time - 3:30
Play Part_C
  Repeat it 4 times.



*** time - 3:42
Play Part_F
  Repeat it 2 times.



*** time - 3:55
Part_G
  Repeat it 4 times.
#||---------------------------------------|----------------------------------------||#
#||---------------------------------------|----------------------------------------||#
#||o--------------------------------------|---------------------------------------o||#
#||o--11--9--------9----------------------|---------------------------------9-----o||#
#||------------12-----------12---11-------|-----------9------------11---12---------||#
#||----------------------------------10---|------12-------12-----------------------||#
      1        2        3        4           1        2        3        4    (End of Part_G)



*** time - 4:07
Play Part_B
  Repeat it 2 times.




*** time - 4:20
Play Part_A
  Repeat it 4 times.



*** time - 4:46
Part_H
#|--------------------|#
#|--------------------|#
#|--------------------|#
#|--9-----------------|#
#|--7-----------------|#
#|--------------------|#
                (End of Part_H)

=== END OF TAB ===
Добавлено: 10.03.2012
Другие материалы по этой песне:

Страница создана 10.03.2012
http://primanota.ru/dimension-zero/through-the-virgin-sky-chords.htm
Привет, Гость.
Предлагаем пройти революционный курс по гитаре.
Подарок от PrimaNota.Ru, забирай!