PrimaNota.ru - самый крупный в мире бесплатный архив песенных текстов, аккордов, табулатур и нот


Dime Store Prophets - Babys Got A New Dress - аккорды и текст, таба, видео

Регистрация Запомнить меня
Войти через:  Facebook Google Twitter Vk Yandex Mail.ru

Dime Store Prophets - Babys Got A New Dress - аккорды и текст, таба, видео

Печатать
Просмотров: 103
Babys Got A New Dress
Dime Store Prophets
		   Submitted by Aaron Thomas Pierce
apierce@netins.net
http://www.netins.net/showcase/vwbug

Baby's Got A New Dress
Dime Store Prophets
Copyright 1995 Buster's Reunion Music

Chorded by:  Luca Trento (Dumelut@aol.com)
Tabs by:  Brian Pietrzak (Brianp@cris.com)


INTRO: Dbm  A  Dbm  A  Dbm  A  E  (x2)
FILL1 w/INTRO (listed below)


   Dbm  A   Dbm   A
Salvation in cotton,
   Dbm  A                       E
You've never looked this good before.
Raise your chin child, guilt is not my style.
I'm the one you've been looking for.


A chemical breakfast, and a liquid lunch
Let me be your addiction.
Said he'd love you all night long,
but in the morning he put his pants on and he was gone.
He left you naked.
I'll never leave.


CHORUS:
A
                               E
I don't love you for your yesterday's,
 A                                 E
I'll meet you just right where you are.
 A                                 E
I don't care what kind of clothes you wore.
 A                             D
Angels sing and I confess, hallelujah
 A
Baby's got a new dress.


FILL2 (listed below)

I watched you dancing in the arms of another,
Remember, I am the jealous lover.
White looks fine on you.
It cost me a life wages just to give it to you.
My love is truth.


CHORUS

D  A
E              D  A
Who loves you baby,
E
I do

Solo (too much to tab, sorry)


FILL1:
e|-------------------------------------------------|
B|-------------------------------------------------|
G|-------9--------------------------9-11-11-11-9---|
D|--9h11------11-9---7-9-7-7-6---------------------|
A|-----------------------------7-------------------|
E|-------------------------------------------------|

e|-------------------------------------------------|
B|--10-12-10-9-10-9--------------------------------|
G|------------------9-11-9---------9-9----9-11-----|
D|----------------------------9h11-----11------9---|
A|-------------------------------------------------|
E|-------------------------------------------------|

e|-----------------(12)--------(7)--| () indicate
B|--12-10-9------------(12)---------|    to play
G|----------11-9--------------------|    the harmonic
D|----------------------------------|
A|----------------------------------|
E|----------------------------------|


FILL2:
e|--12-14-14-14-12--------------------------------|
B|---------------------14-12-10-12-10-9----9------|
G|--------------------------------------11---9----|

e|--12------------|
B|-----12-10-9----|
G|-------------9--|
     
Добавлено: 09.09.2013
Другие материалы по этой песне:
  • Аккорды и текст

Страница создана 12.04.2012
http://primanota.ru/dime-store-prophets/babys-got-a-new-dress-chords.htm
Привет, Гость.
Предлагаем пройти революционный курс по гитаре.
Подарок от PrimaNota.Ru, забирай!