PrimaNota.ru - самый крупный в мире бесплатный архив песенных текстов, аккордов, табулатур и нот


Dils - I Hate The Rich - таба, видео

Регистрация Запомнить меня
Войти через:  Facebook Google Twitter Vk Yandex Mail.ru

Dils - I Hate The Rich - таба, видео

Печатать
Просмотров: 80
Уроки эстрадного вокала в Санкт-Петербурге
Song: "I Hate The Rich"
Artist: The Dils
Tabbed by Gavin (venus_in_furs@postmaster.co.uk)
This tab is all my own work.

/ = Slide up
/(#) = Slide to #
b = 1/2 bend
B = Full bend

The rhythm of the chords is only approximate, listen to the song
to get it just right.


Intro

e---5-----6-----5-----3-------5-----6-----5-----3---|
B---6-----6-----5-----3-------6-----6-----5-----3---|
G---5-----5-----5-----3-------5-----5-----5-----3---|
D---x-----x-----x-----x-------x-----x-----x-----x---|
A---x-----x-----x-----x-------x-----x-----x-----x---|
E---x-----x-----x-----x-------x-----x-----x-----x---|


e------------------------------------|
B------------------------------------|
G---10-10-10-10-10----10--10--8--10--|  x2
D---10-10-10-10-10----10--10--8--10--|
A---8--8--8--8--8-----8---8---6--8---|
E------------------------------------|


Verse 1

e------------------------------------|
B------------------------------------|
G---10-10-10-10-10----10--10--8--10--|  x2
D---10-10-10-10-10----10--10--8--10--|
A---8--8--8--8--8-----8---8---6--8---|
E------------------------------------|

I hate.....
They.......


e--------------------------------|
B--------------------------------|
G---12-12-12-12-12---13--13-13---|
D---12-12-12-12-12---13--13-13---|
A---10-10-10-10-10---11--11-11---|
E--------------------------------|

I hate....


e------------------------------------|
B------------------------------------|
G---10-10-10-10-10----10--10--8--10--|  x2
D---10-10-10-10-10----10--10--8--10--|
A---8--8--8--8--8-----8---8---6--8---|
E------------------------------------|

Kill em off....
Off....


Pre-chorus 1

e--------------------------------------------|
B--------------------------------------------|
G-------------13-13-13--12-12-12-------------|
D---11-11-11--13-13-13--12-12-12--13-13-13---|
A---11-11-11--11-11-11--10-10-10--13-13-13---|
E---9--9--9-----------------------11-11-11---|

I hate the rich i don't....
I hate the rich no....


Verse 2

e------------------------------------|
B------------------------------------|
G---10-10-10-10-10----10--10--8--10--|  x2
D---10-10-10-10-10----10--10--8--10--|
A---8--8--8--8--8-----8---8---6--8---|
E------------------------------------|

We got....
Crawling....


e--------------------------------|
B--------------------------------|
G---12-12-12-12-12---13--13-13---|
D---12-12-12-12-12---13--13-13---|
A---10-10-10-10-10---11--11-11---|
E--------------------------------|

We got....


e------------------------------------|
B------------------------------------|
G---10-10-10-10-10----10--10--8--10--|  x2
D---10-10-10-10-10----10--10--8--10--|
A---8--8--8--8--8-----8---8---6--8---|
E------------------------------------|

Always want....
Always....


Pre-chorus 2

e--------------------------------------------|
B--------------------------------------------|
G-------------13-13-13--12-12-12-------------|
D---11-11-11--13-13-13--12-12-12--13-13-13---|
A---11-11-11--11-11-11--10-10-10--13-13-13---|
E---9--9--9-----------------------11-11-11---|

We got the poor all....
We got the poor no....


Chorus

e------------------------------------------|
B------------------------------------------|
G---10-10--8--10-10-------------13-13-13---| x4
D---10-10--8--10-10---11-11-11--13-13-13---|
A---8--8---6--8--8----11-11-11--11-11-11---|
E---------------------9--9--9--------------|

I hate...
We got...
I hate...
I hate them...


Solo

e----------------13b13b13b13b13b-16B-13-------------------------|
B----------------13b13b13b13b13b-----13-------------------------|
G---10-8-10/(13)-------------------------10-8-10--13-12-11-10---|
D---------------------------------------------------------------|
A---------------------------------------------------------------|
E---------------------------------------------------------------|

e---8--8--8--8--8--8--8--8--8---x---|
B---x--x--x--x--x--x--x--x--x---x---|
G---10-10-10-10-10-10-10-10-10--0---|
D---10-10-10-10-10-10-10-10-10--0---|
A-------------------------------0---|
E-------------------------------0---|


Pre-chorus 1

Pre-chorus 2

Chorus x 2


End with:

e--------|
B--------|
G---10---|
D---10---|
A---8----|
E--------|
     
Добавлено: 05.09.2013
Другие материалы по этой песне:
  • Аккорды и текст

Страница создана 05.09.2013
http://primanota.ru/dils/i-hate-the-rich-chords.htm
Привет, Гость.
Предлагаем пройти революционный курс по гитаре.
Подарок от PrimaNota.Ru, забирай!