PrimaNota.ru - самый крупный в мире бесплатный архив песенных текстов, аккордов, табулатур и нот


Dillon Francis - Idgafos - таба, видео

Регистрация Запомнить меня
Войти через:  Facebook Google Twitter Vk Yandex Mail.ru

Dillon Francis - Idgafos - таба, видео

Печатать
Просмотров: 100
Авторы музыки: Dillon Francis

I.D.G.A.F.O.S.
Dillon Francis


Listen to the track for timings, etc.


e|--17---19h17--21---17/16h17---16/14h16---14/12h14--14----------------------------|
B|-------------------------------------------------------14-14--12-----------------|
G|---------------------------------------------------------------------------------|
D|---------------------------------------------------------------------------------|
A|---------------------------------------------------------------------------------|
E|---------------------------------------------------------------------------------|


e|---17---16/14h16---14/12h14-----------------------------------------------|
B|------------------------------14p12h14---12/10h12--12---------------------|
G|------------------------------------------------------11-11--9------------|
D|--------------------------------------------------------------------------|
A|--------------------------------------------------------------------------|
E|--------------------------------------------------------------------------|

play chords twice each
e|------------------2-----2-----------------------------------|
B|---10----5--------3-----2---3----------5--------------------|
G|---9-----6----4---4-----2---2-----4----4--------------------|
D|---11---------4-------------4-----4----6--------------------|
A|--------------2-------------------5-------------------------|
E|------------------------------------------------------------|


e|---------------------------------------------------------------------------------------|
B|------------------------------------------------------------------12--12--14--14--14---|
G|-----14----14-------14--------------11-11-11-11-11-11-11-11-11-11----------------------|
D|--11----11----11-11-----11-------11----------------------------------------------------|
A|---------------------------12-12-------------------------------------------------------|
E|---------------------------------------------------------------------------------------|

e|---------------------------------------------------------------------|
B|--14/19-14---------------------------------10-12---------------------|
G|----------------------11-14-----------9-11-------9-11----------------|
D|-----------11-14/16---------11------------------------11-------------|
A|-------------------------------12------------------------12----------|
E|---------------------------------------------------------------------|


0:51

e|-----------------------------------------------------------------|
B|-----14-17-12h17p12----------------------------------------------|
G|--14----------------14---11-14p11---------14p11------------------|
D|----------------------------------14-11---------11-9h11p9--------|
A|----------------------------------------------------------12-----|
E|-----------------------------------------------------------------|

e|--------------------------------------------------------------------------------------|
B|-------------------------------------------------------10-----------------------------|
G|-------------9-------9------------------------9-11------------9-------9h11p9----------|
D|----------11---11-11---9h11p9--------------11-------11-----11---11-9---------11-9-----|
A|---7/9h12---------------------12----7/9h12--------------------------------------------|
E|--------------------------------------------------------------------------------------|






Use loads of gain for this part.  All subsequent heavy sections following this are 
pretty much the same with slight variations.


1:26

e|---------------------------------/14-14-14-----------17------------------|
B|------------7-7-7-7-7-7-7-7----------------------------------------------|
G|-------------------------------------------11-11-11------16(17)v---------|
D|-------------------------------------------------------------------------|
A|--4-4-4-4----------------------------------------------------------------|
E|--2-2-2-2----------------------------------------------------------------|
PM            -------------------------------------------------------------|




e|---/14------------------------------------14-15------------------------|
B|--------------------------------------------------14-------------------|
G|-------11-11-11-----------------------11--------------14---------------|
D|-----------------------------------------------------------------------|
A|----------------9-9-9-9---9-9-9-9--------------------------------------|
E|-----------------------------------------------------------------------|
PM                -------------------------------------------------------|



e|---------------------------------/14-14-14-----------17------------------|
B|------------7-7-7-7-7-7-7-7----------------------------------------------|
G|-------------------------------------------11-11-11------16(17)v---------|
D|-------------------------------------------------------------------------|
A|--4-4-4-4----------------------------------------------------------------|
E|--2-2-2-2----------------------------------------------------------------|
PM            -------------------------------------------------------------|


                                           Gradual lowering of pitch with bar or pre bend
e|----/14-------------------------------------------------------------------------------|
B|--------------------------------------------------------------------------------------|
G|---------11-11-11--(11)-(11)-(11)-(11)-(11)-(11)-(11)-(10.5)-(10)-(9.5)-(9)-----------|
D|--------------------------------------------------------------------------------------|
A|--------------------------------------------------------------------------------------|
E|--------------------------------------------------------------------------------------|
Добавлено: 23.07.2013
Другие материалы по этой песне:
  • Аккорды и текст

Страница создана 23.07.2013
http://primanota.ru/dillon-francis/idgafos-chords.htm
Привет, Гость.
Предлагаем пройти революционный курс по гитаре.
Подарок от PrimaNota.Ru, забирай!