PrimaNota.ru - самый крупный в мире бесплатный архив песенных текстов, аккордов, табулатур и нот


Dillinger Four - Super Powers Enable Me To Blend In With Machinery - текст песни, таба, видео

Регистрация Запомнить меня
Войти через:  Facebook Google Twitter Vk Yandex Mail.ru

Dillinger Four - Super Powers Enable Me To Blend In With Machinery - текст песни, таба, видео

Печатать
Просмотров: 65
Dillinger Four
Super Powers Enable Me to Blend in with Machinery

By: TheLoot

Intro: Guitar 1

E|--12-11-11-12-11-11-12-11-11-12-10-9-9-10-9-9-10--|
B|--12-11-11-12-11-11-12-11-11-12-10-9-9-10-9-9-10--|
G|--------------------------------------------------|
D|--------------------------------------------------|
A|--------------------------------------------------|
E|--------------------------------------------------|

Intro: Guitar 2

E|-------------------------------------------------|
B|-------------------------------------------------|
G|--9--7--7--9--7--7--9--7--7--9--7--5-5-7--5-5-7--|
D|--9--7--7--9--7--7--9--7--7--9--7--5-5-7--5-5-7--|
A|--7--7--7--7--7--7--7--7--7--7--5--5-5-5--5-5-5--|
E|-------------------------------------------------|

Verse:

E|-----------------------------------------------------------|
B|-----------------------------------------------------------|
G|--------------------------------------------7-7-7-7-7-7-7--|
D|--7-7-7-7-7-7-7-2-2-2-2-2-2-2-4-4-4-4-4-4-4-7-7-7-7-7-7-7--|
A|--7-7-7-7-7-7-7-2-2-2-2-2-2-2-4-4-4-4-4-4-4-5-5-5-5-5-5-5--|
E|--5-5-5-5-5-5-5-0-0-0-0-0-0-0-2-2-2-2-2-2-2----------------|

  PM=========================|
--------------------------------------------------|
--------------------------------------------------|
------------------------------7-5-5-7-5-5-7-5-5-7-|
------------------------------7-5-5-7-5-5-7-5-5-7-|
--7-7-7-7-7-7-7-7-7-7-7-7-7-7-5-5-5-5-5-5-5-5-5-5-|
--5-5-5-5-5-5-5-5-5-5-5-5-5-5---------------------|


E|-----------------------------------------------------------|
B|-----------------------------------------------------------|
G|--------------------------------------------7-7-7-7-7-7-7--|
D|--7-7-7-7-7-7-7-2-2-2-2-2-2-2-4-4-4-4-4-4-4-7-7-7-7-7-7-7--|
A|--7-7-7-7-7-7-7-2-2-2-2-2-2-2-4-4-4-4-4-4-4-5-5-5-5-5-5-5--|
E|--5-5-5-5-5-5-5-0-0-0-0-0-0-0-2-2-2-2-2-2-2----------------|

  PM=========================|
---------------------------------------------------|
---------------------------------------------------|
---------------------------------------------------|
------------------------------2-2-2-2-2-2-2-2-2-2--|
--7-7-7-7-7-7-7-7-7-7-7-7-7-7-2-2-2-2-2-2-2-2-2-2--|
--5-5-5-5-5-5-5-5-5-5-5-5-5-5-0-0-0-0-0-0-0-0-0-0--|



E|-----------------------------------------------------------|
B|-----------------------------------------------------------|
G|--------------------------------------------7-7-7-7-7-7-7--|
D|--7-7-7-7-7-7-7-2-2-2-2-2-2-2-4-4-4-4-4-4-4-7-7-7-7-7-7-7--|
A|--7-7-7-7-7-7-7-2-2-2-2-2-2-2-4-4-4-4-4-4-4-5-5-5-5-5-5-5--|
E|--5-5-5-5-5-5-5-0-0-0-0-0-0-0-2-2-2-2-2-2-2----------------|

  PM=========================|
---------------------------------------------------|
---------------------------------------------------|
------------------------------7-5-5-7-5-5-7-5-5-7--|
------------------------------7-5-5-7-5-5-7-5-5-7--|
--7-7-7-7-7-7-7-7-7-7-7-7-7-7-5-5-5-5-5-5-5-5-5-5--|
--5-5-5-5-5-5-5-5-5-5-5-5-5-5----------------------|


E|---------------------------------------------------------|
B|---------------------------------------------------------|
G|---------------------------------------------------7--9--|
D|--7--7--7--7--6--6--6--6--4--4--4--4--2--2--2--2---7--9--|
A|--7--7--7--7--6--6--6--6--4--4--4--4--2--2--2--2---5--7--|
E|--5--5--5--5--4--4--4--4--2--2--2--2--0--0--0--0---------|

CHORUS:
E|---------------------------------------------------|
B|---------------------------------------------------|
G|--------------9-9-9-9-9-9-7-7-7-7-7-7-7-7-7-7-7-7--|
D|--7-7-7-7-7-7-9-9-9-9-9-9-7-7-7-7-7-7-7-7-7-7-7-7--| 2x
A|--7-7-7-7-7-7-7-7-7-7-7-7-5-5-5-5-5-5-5-5-5-5-5-5--|
E|--5-5-5-5-5-5--------------------------------------|

VERSE 1x
CHORUS 1x

ENDING

E|--------------------------------------------------------------------------|
B|--------------------------------------------------------------------------|
G|-------------------------------------------7-7----------------------------|
D|--4-4-4-stop-7-7-7-7-7-7-7-7-7-7-7-7-4-4---7-7---7-7-7-7-7-7-7-7-7-7-7-7--|
A|--4-4-4------7-7-7-7-7-7-7-7-7-7-7-7-4-4---5-5---7-7-7-7-7-7-7-7-7-7-7-7--|
E|--2-2-2------5-5-5-5-5-5-5-5-5-5-5-5-2-2---------5-5-5-5-5-5-5-5-5-5-5-5--|


----------------------------------------------------------------------------|
----------------------------------------------------------------------------|
--9-9-9-9-9-9-7-7-7-7-7-7-------------------------9-9-9-9-9-9-7-7-7-7-7-7---|
--9-9-9-9-9-9-7-7-7-7-7-7-7-7-7-7-7-7-7-7-7-7-7-7-9-9-9-9-9-9-7-7-7-7-7-7-7-|
--7-7-7-7-7-7-5-5-5-5-5-5-7-7-7-7-7-7-7-7-7-7-7-7-7-7-7-7-7-7-5-5-5-5-5-5-7-|
--------------------------5-5-5-5-5-5-5-5-5-5-5-5-------------------------5-|
Добавлено: 16.11.2013
Вам также может быть интересно:
Другие материалы по этой песне:
  • Аккорды и текст

Страница создана 27.02.2012
http://primanota.ru/dillinger-four/super-powers-enable-me-to-blend-in-with-machinery-chords.htm
Привет, Гость.
Предлагаем пройти революционный курс по гитаре.
Подарок от PrimaNota.Ru, забирай!