PrimaNota.ru - самый крупный в мире бесплатный архив песенных текстов, аккордов, табулатур и нот


Dillinger Four - Laborissuesinthetoydepartment - таба

Регистрация Запомнить меня
Войти через:  Facebook Google Twitter Vk Yandex Mail.ru

Dillinger Four - Laborissuesinthetoydepartment - таба

Печатать
Просмотров: 82
Dillinger Four - Laborissuesinthetoydepartment

each chord is usually played many times and I can't be bothered to figure out how 
so listen to the song.

Intro

(impossible to play with just 1 guitar, so you may skip the notes in parentheses)

E|----------------------------------------------------------|
B|-9--10------9--10-----9--12-12-(9)(10)--------------------|
G|-9--9-------9--9------9--9--11-(9)(9)---------------------|
D|-9--9--9----9--9---7--9--9--9---6--7----------------------|
A|(7)(7)-9---(7)(7)--7------------6--7----------------------|
E|-------7-----------5------------4--5----------------------|

E|------------|------------|--------------------------------|
B|------------|------------|--------------------------------|
G|-9----------|------------|--------------------------------|
D|-9-9-11--11-|-11-6--8--8-|--11-6--6--8--------------------|
A|-7-9-11--11-|-x--x--x--x-|--x--x--x--x--------------------|
E|---7-9---9--|-9--4--6--6-|--9--4--4--6--------------------|

Verse 1
  2x          2x
E|------------|-------------|-------------------------------|
B|------------|-------------|-------------------------------|
G|------------|-6--6--------|-------6-----------------------|
D|-11-11-6--8-|-6--6--4--6--|-8--6--6--4--8--6--4--6--------|
A|-x--x--x--x-|-4--4--4--6--|-8--6--4--4--8--6--4--6--------|
E|-9--9--4--6-|-------2--4--|-6--4-----2--6--4--2--4--------|

E|-----------------|------------|---------------------------|
B|-----------------|------------|---------------------------|
G|-6---------------|-6----------|-6-------------------------|
D|-6--6--4--777-77-|-6--6--4--7-|-6--6--4-------------------|
A|-4--6--4--777-77-|-4--6--4--7-|-4--6--4-------------------|
E|----4--2--555-55-|----4--2--5-|----4--2-------------------|

Chorus

E|------------------------|---------------------------------|
B|------------------------|---------------------------------|
G|------------------------|-------9-------------------------|
D|-2--5--7--10-2--5--7--8-|-11-9--9--7--11-9--7--9----------|
A|-2--5--7--10-2--5--7--8-|-11-9--7--7--11-9--7--9----------|
E|-0--3--5--8--0--3--5--6-|-9--7-----5--9--7--5--7----------|

Intro riff again

E|----------------------------------------------------------|
B|-9--10------9--10-----9--12-12-(9)(10)--------------------|
G|-9--9-------9--9------9--9--11-(9)(9)---9---11-13---------|
D|-9--9--9----9--9---7--9--9--9---6--7----9---11-13---------|
A|(7)(7)-9---(7)(7)--7------------6--7----7---9--11---------|
E|-------7-----------5------------4--5----------------------|

Verse 2

  2x           2x
E|------------|------------|------------|----------------|
B|------------|------------|------------|----------------|
G|-6--6-------|------------|-6----------|-6--------------|
D|-6--6--4--6-|-8--6--4--6-|-6--6--4--7-|-6--6--4--------|
A|-4--4--4--6-|-8--6--4--6-|-4--6--4--7-|-4--6--4--------|
E|-------2--4-|-6--4--2--4-|----4--2--5-|----4--2--------|

Chorus

E|------------------------|---------------------------------|
B|------------------------|---------------------------------|
G|------------------------|-------9-------------------------|
D|-2--5--7--10-2--5--7--8-|-11-9--9--7--11-9--7--9----------|
A|-2--5--7--10-2--5--7--8-|-11-9--7--7--11-9--7--9----------|
E|-0--3--5--8--0--3--5--6-|-9--7-----5--9--7--5--7----------|

Outro

E|-----------------------------------------------------------------|
B|-----------------------------------------------------------------|
G|-----------------------------------------------------------------|
D|---9--9----------9--9----------9--9-------9--9-----9-----7-------|
A|---11-11h12------11-11h12------11-11h12---11-11h12-9-7-7-7-------|
E|-00---------7--00---------5--00---------99-----------------------|

(either play the above passage twice or play the first 4 chords from
the next bar palm muted)

E|-------------|---------------------------------------------------|
B|-------------|---------------------------------------------------|
G|-9-----------|-9----------------9--------------------------------|
D|-9--9--11-7--|-9--9--7---11-9-7-9--------------------------------|
A|-7--9--11-7--|-7--9--7---11-9-7-7--------------------------------|
E|----7--9--5--|----7--5---9--7-5----------------------------------|
Добавлено: 04.04.2012
Другие материалы по этой песне:
  • Аккорды и текст

Страница создана 04.04.2012
http://primanota.ru/dillinger-four/laborissuesinthetoydepartment-chords.htm
Привет, Гость.
Предлагаем пройти революционный курс по гитаре.
Подарок от PrimaNota.Ru, забирай!