PrimaNota.ru - самый крупный в мире бесплатный архив песенных текстов, аккордов, табулатур и нот


Dillinger Four - Gainesville - текст песни, таба, видео

Регистрация Запомнить меня
Войти через:  Facebook Google Twitter Vk Yandex Mail.ru

Dillinger Four - Gainesville - текст песни, таба, видео

Печатать
Просмотров: 115
Dillinger Four - Gainesville

Tabbed by Timofei Shatrov. October 2008.

This is the first tab I submit, so beware :)

Intro
E|-----------------------------------------------------------|
B|-----------------------------------------------------------|
G|---6-6-69766-----6-6-69/11-66----6-6-6976667776777---------|
D|-/7-7-7----0---/7-7-7-------0--/7-7-7-----77777777---------|
A|-----------------------------------------------------------|
E|-----------------------------------------------------------|

E|----------------------------------------------------------|
B|---------------7--------------------7---------------------|
G|---6-697666-6-6-6666----6-697666-6-6-6666-----------------|
D|--7-7------9-9---------7-7------9-9-----------------------|
A|----------------------------------------------------------|
E|----------------------------------------------------------|

Verse (play each chord PM 8 times)
(I'm not sure if the chords are right, but they are muted anyway...)

E|----------------------------------------------------------|
B|----------------------------------------------------------|
G|----------------------------------------------------------|
D|-----7-------7--------7---------7-------------------------|
A|-7-7-5-9-7-7-5-9--7-7-5-9-7-7-5-5-------------------------|
E|-5-4---7-5-4---7--5-4---7-5-4-3---------------------------|

          |PM 8x  |         |PM 8x|
E|--------|-------|---------|-----|-------------------------|
B|--------|-------|---------|-----|-------------------------|
G|--------|-------|---------|-----|-------------------------|
D|-7777-7-|-7-----|---------|---7-|-------------------------|
A|-5555-5-|-5-7-5-|-5454----|-5-5-|-------------------------|
E|--------|---5-3-|-----553-|-3---|-------------------------|

Chorus (play each 8x)

E|----------------------------------------------------------|
B|----------------------------------------------------------|
G|----------------------------------------------------------|
D|-----7-------7-----9-11-7---------------------------------|
A|-7-7-5-9-7-7-5-9-7-7-9--5--7-7-7-7------------------------|
E|-5-4---7-5-4---7-5---------5-5-5-5------------------------|

Play verse with less palm muting, then chorus again

Outro

Guitar 1
E|----------------------------------------------------------|
B|----12-----12---------------------------------------------|
G|-999--9-999--9---(and so on)------------------------------|
Guitar 2
D|-9-------------9-8-7----9-8-7-----------------------------|
A|-7-------------7-6-5-7--7-6-5-7---------------------------|
E|---------------------5--------5--(scratch)----------------|

repeat this two times
E|----------------------------------------------------------|
B|----------------------------------------------------------|
G|----------------------------------------------------------|
D|-9-9999-8-8888-7-7777-7-7777------------------------------|
A|-7-7777-6-6666-5-5555-5-5555--777-77777777----------------|
E|------------------------------555-77777775----------------|

time was wasted            8x each
E|-------------------------------------------------------------|
B|-------------------------------------------------------------|
G|-------------------------9-9-9-9-9-6-9-9-9-9-9-6-9-----------|
D|-------------------------x-x-7-7-x-x-x-x-7-7-x-x-x-----------|
A|-7---7---7-4-7---7---7-4-7-7-7-7-7-4-7-7-7-7-7-4-7-----------|
E|-----5---9-5-7---5---9-5---------9-5---------9-5-------------|

(this is how you'd play it with one guitar; if there are two, one plays octaves, and the 
plays additional chords)
Добавлено: 21.07.2012
Другие материалы по этой песне:
  • Аккорды и текст

Страница создана 21.07.2012
http://primanota.ru/dillinger-four/gainesville-chords.htm
Привет, Гость.
Предлагаем пройти революционный курс по гитаре.
Подарок от PrimaNota.Ru, забирай!