PrimaNota.ru - самый крупный в мире бесплатный архив песенных текстов, аккордов, табулатур и нот


Dillinger Escape Plan - When Acting As A Wave - таба, видео

Регистрация Запомнить меня
Войти через:  Facebook Google Twitter Vk Yandex Mail.ru

Dillinger Escape Plan - When Acting As A Wave - таба, видео

Печатать
Просмотров: 105
DILLINGER ESCAPE PLAN - WHEN ACTING AS A WAVE (Ire Works)

STANDARD TUNING - EADGBe



|-------------------------------------------------|
|-------------------------------------------------|
|-6-------------6---------6-----6----------6------|
|-6-------------6---------6-----6----------6------|
|-4-5-4-5-0-----4---------4-----4----------4--[4]-|
|---5-4-5-0---5---5---5-5---5-5----5--5-5---------|
  pm-------   -   -   ---   ---    -  ---

|----------------------------------------------|
|----------------------------------------------|
|---6------6-------6-----6-6-----6--6--6-------|
|---6------6-------6-----6-6-----6--6--6-------|
|---4------4-------4-----4-4-----4--4--4-5-4-5-|
|-5---5-5----5--5----5-5-----5-5---------5-4-5-|
pm-   ----   ----   ----     ---         -----
  
|-------------------------------------------------|
|-------------------------------------------------|
|-6-------------6---------6-----6----------6------|
|-6-------------6---------6-----6----------6------|
|-4-5-4-5-0-----4---------4-----4----------4--[4]-|
|---5-4-5-0---5---5---5-5---5-5----5--5-5---------|
  pm-------   -   -   ---   ---    -  ---

|----------------------------------------------|
|----------------------------------------------|
|---6------6-------6-----6-6-----6--6--6-------|
|---6------6-------6-----6-6-----6--6--6-------|
|---4------4-------4-----4-4-----4--4--4-5-4-5-|
|-5---5-5----5--5----5-5-----5-5---------5-4-5-|
pm-   ----   ----   ----     ---         -----



|---------------------------------|-------------------------------|
|---------------------------------|---6-------6-------6-------6---|
|---6---6---6---6---6---6---6---6-|---6---6---6---6---6---6---6---|
|---6---6---6---6---6---6---6---6-|---6---6---6---6---6---6---6---|
|---4---4---4---4---4---4---4---4-|---4---4---4---4---4---4---4---|
|-5---5---5---5---5---5---5---5---|-5---5---5---5---5---5---5---5-|
pm-   -   -   -   -   -   -   -     -   -   -   -   -   -   -   -



|-------------------------------------------------|
|-------------------------------------------------|
|-6-------------6-----6-6---6----------6--6-------|
|-6-------------6-----6-6---6----------6--6-------|
|-4-5-4-5-0-----4-----4-4---4----------4--4-5-4-5-|
|---5-4-5-0---5----5------5----5---5-5------5-4-5-|
  pm-------   -    -      -    -   ---      -----

|-------------------------------------------|
|-------------------------------------------|
|-6-------------6----6-6-----6---6--6-------|
|-6-------------6----6-6-----6---6--6-------|
|-4-5-4-5-------4----4-4-----4---4--4-5-4-5-|
|---5-4-5--5-5-----5-------5---5------5-4-5-|
  pm-----  ---     -       -   -      -----

|-----------------------------------------|
|-----------------------------------------|
|-------6-----6-6---6----------6--6-------|
|-------6-----6-6---6----------6--6-------|
|-0-----4-----4-4---4----------4--4-5-4-5-|
|-0---5---5-5-----5----5---5-5------5-4-5-|
pm-   -   ---     -    -   ---      -----

|------------------------------------------|
|------------------------------------------|
|-6--------------------6-6---6--6--6-------|
|-6--------------------6-6---6--6--6-------|
|-4-5-4-5--------------4-4---4--4--4-5-4-5-|
|---5-4-5--5-5--5----5-----5---------5-4-5-|
  pm-----  ---  -    -     -         -----



|---------------------------------|-------------------------------|
|---------------------------------|---6-------6-------6-------6---|
|---6---6---6---6---6---6---6---6-|---6---6---6---6---6---6---6---|
|---6---6---6---6---6---6---6---6-|---6---6---6---6---6---6---6---|
|---4---4---4---4---4---4---4---4-|---4---4---4---4---4---4---4---|
|-5---5---5---5---5---5---5---5---|-5---5---5---5---5---5---5---5-|
pm-   -   -   -   -   -   -   -     -   -   -   -   -   -   -   -



|-------------------------------------------------|
|-------------------------------------------------|
|-6-------------6---------6-----6----------6------|
|-6-------------6---------6-----6----------6------|
|-4-5-4-5-0-----4---------4-----4----------4--[4]-|
|---5-4-5-0---5---5---5-5---5-5----5--5-5---------|
  pm-------   -   -   ---   ---    -  ---

|----------------------------------------------|
|----------------------------------------------|
|---6------6-------6-----6-6-----6--6--6-------|
|---6------6-------6-----6-6-----6--6--6-------|
|---4------4-------4-----4-4-----4--4--4-5-4-5-|
|-5---5-5----5--5----5-5-----5-5---------5-4-5-|
pm-   ----   ----    ---     ---         -----
  
|-------------------------------------------------|
|-------------------------------------------------|
|-6-------------6---------6-----6----------6------|
|-6-------------6---------6-----6----------6------|
|-4-5-4-5-0-----4---------4-----4----------4--[4]-|
|---5-4-5-0---5---5---5-5---5-5----5--5-5---------|
  pm-------   -   -   ---   ---    -  ---

|------------------------------------------------|
|------------------------------------------------|
|---6------6-------6-----6-6-----6-6-----6-------|
|---6------6-------6-----6-6-----6-6-----6-------|
|---4------4-------4-----4-4-----4-4-----4-5-4-5-|
|-5---5-5----5--5----5-5-----5-5-----5-5---5-4-5-|
pm-   ----   ----    ---     ---     ---   -----



|---------------------------------|-------------------------------|
|---------------------------------|---6-------6-------6-------6---|
|---6---6---6---6---6---6---6---6-|---6---6---6---6---6---6---6---|
|---6---6---6---6---6---6---6---6-|---6---6---6---6---6---6---6---|
|---4---4---4---4---4---4---4---4-|---4---4---4---4---4---4---4---|
|-5---5---5---5---5---5---5---5---|-5---5---5---5---5---5---5---5-|
pm-   -   -   -   -   -   -   -     -   -   -   -   -   -   -   -



|-------------------------------------------------|
|-------------------------------------------------|
|-6-------------6-----6-6---6----------6--6-------|
|-6-------------6-----6-6---6----------6--6-------|
|-4-5-4-5-0-----4-----4-4---4----------4--4-5-4-5-|
|---5-4-5-0---5----5------5----5---5-5------5-4-5-|
  pm-------   -    -      -    -   ---      -----

|-------------------------------------|
|-------------------------------------|
|-6--------------6----6-----6---------|
|-6--------------6----6-----6---------|
|-4-5-4-5--------4----4-----4---5-4-5-|
|---5-4-5--5-5-5----5-----5-----5-4-5-|
  pm-----  -----    -     -     -----

|-----------------------------------------|
|-----------------------------------------|
|-------6-----6-6---6----------6--6-------|
|-------6-----6-6---6----------6--6-------|
|-0-----4-----4-4---4----------4--4-5-4-5-|
|-0---5---5-5-----5----5---5-5------5-4-5-|
pm-   -   ---     -    -   ---      -----

|--------------------------------------------|
|--------------------------------------------|
|-6---------------6----6-6----6-6----6-------|
|-6---------------6----6-6----6-6----6-------|
|-4-5-4-5---------4----4-4----4-4----4-5-4-5-|
|---5-4-5--5-5--5----5------5------5---5-4-5-|
  pm-----  ---  -    -      -      -   -----



|---------------------------------|---------------------------------------|
|---------------------------------|---6-------6-------6-------6-----------|
|---6---6---6---6---6---6---6---6-|---6---6---6---6---6---6---6---6-------|
|---6---6---6---6---6---6---6---6-|---6---6---6---6---6---6---6---6-------|
|---4---4---4---4---4---4---4---4-|---4---4---4---4---4---4---4---4-5-4-5-|
|-5---5---5---5---5---5---5---5---|-5---5---5---5---5---5---5---5---5-4-5-|
pm-   -   -   -   -   -   -   -     -   -   -   -   -   -   -   -   -----

Добавлено: 17.05.2012
Другие материалы по этой песне:

Страница создана 17.05.2012
http://primanota.ru/dillinger-escape-plan/when-acting-as-a-wave-chords.htm
Привет, Гость.
Предлагаем пройти революционный курс по гитаре.
Подарок от PrimaNota.Ru, забирай!