PrimaNota.ru - самый крупный в мире бесплатный архив песенных текстов, аккордов, табулатур и нот


Dillinger Escape Plan - Sunshine The Werewolf - текст песни, таба, видео

Регистрация Запомнить меня
Войти через:  Facebook Google Twitter Vk Yandex Mail.ru

Dillinger Escape Plan - Sunshine The Werewolf - текст песни, таба, видео

Печатать
Просмотров: 136
Авторы музыки: Greg Puciato, Ben Weinman

DILLINGER ESCAPE PLAN - SUNSHINE THE WEREWOLF (Miss Machine)

STANDARD TUNING - EADGBe

 
-----------------|--------------|----------------|
-----------------|--------------|----------------|
--4--4-----------|--4--4--4--4--|----------------|
--3--3-----------|--3--3--3--3--|----------------|
--2--2-----------|--2--2--2--2--|----------------|
-----------------|--------------|----------------|



--------------------------------|--------------------|
--------------------------------|--------------------|
--4--4-----4--4-----4--4--4-----|--4--4--5--5--3--3--|
--3--3-----3--3-----3--3--3-----|--3--3--4--4--2--2--|
--2--2-----2--2-----2--2--2-----|--2--2--3--3--1--1--|
--------------------------------|--------------------|
  
--------------------------------|------------------------------------|
--------------------------------|------------------------------------|
--4--4-----4--4-----4--4--4-----|--7--7--7--8--8--8--11--11--11--11--|
--3--3-----3--3-----3--3--3-----|--6--6--6--7--7--7--10--10--10--10--|
--2--2-----2--2-----2--2--2-----|--5--5--5--6--6--6---9---9---9---9--|
--------------------------------|------------------------------------|


------------------------------|--------------------|
------------------------------|--------------------|
--4--4------------4--4--4-----|--------------------|
--3--3------------3--3--3-----|--------------------|
--2--2------------2--2--2-----|--------------------|
------------------------------|--------------------|

--------------------------------|------------------------------------|
--------------------------------|------------------------------------|
--4--4-----4--4-----4--4--4-----|--7--7--7--8--8--8--11--11--11--11--|
--3--3-----3--3-----3--3--3-----|--6--6--6--7--7--7--10--10--10--10--|
--2--2-----2--2-----2--2--2-----|--5--5--5--6--6--6---9---9---9---9--|
--------------------------------|------------------------------------|



----------------------------------|------------------------------|
----------------------------------|------------------------------|
----------------------------------|------------------------------|
----------------------------------|------------------6--7--6--5--|
---9---9---9---9---9---9---9---9--|---9---9---9---9--5--6--5--4--|
----------------------------------|------------------4--5--4--3--|
pm-------------------------------------------------

-----------------------|--------------------|
-----------------------|--------------------|
-----------------------|--------------------|
-----------------------|-----------6--7--6--|
-----------------------|-----------5--6--5--|
-----------------------|-----------4--5--4--|



-----------------------|--------------------------|
--6--6--6--6--7--7--7--|--6--6--6--6--------------|
-----------------------|--------------------------|
--3--3--3--3--4--4--4--|--3--3--3--3--6--7--6--5--|
-----------------------|--------------5--6--5--4--|
-----------------------|--------------4--5--4--3--|

-----------------------|--------------------|
--6--6--6--6--7--7--7--|--6--6--6-----------|
-----------------------|--------------------|
--3--3--3--3--4--4--4--|--3--3--3--6--7--6--|
-----------------------|-----------5--6--5--|
-----------------------|-----------4--5--4--|


-----------------------|--------------------------|
--6--6--6--6--7--7--7--|--6--6--6--6--------------|
-----------------------|--------------------------|
--3--3--3--3--4--4--4--|--3--3--3--3--6--7--6--5--|
-----------------------|--------------5--6--5--4--|
-----------------------|--------------4--5--4--3--|

-----------------------|--------------------|
--6--6--6--6--7--7--7--|--6--6--6-----------|
-----------------------|--------------------|
--3--3--3--3--4--4--4--|--3--3--3--6--7--6--|
-----------------------|-----------5--6--5--|
-----------------------|-----------4--5--4--|



Gtr I
--------------------------------|--------------------|
--------------------------------|--------------------|
-----6--0--4--6--0--5--4--3-----|--6--6--7--7--5--5--|
--5--------------------------5--|--5--5--6--6--4--4--|
--------------------------------|--4--4--5--5--3--3--|
--------------------------------|--------------------|

Gtr II
--------------------------------|--------------------|
--------------------------------|--------------------|
--6--6-----6--6-----6--6--6-----|--6--6--7--7--5--5--|
--5--5-----5--5-----5--5--5-----|--5--5--6--6--4--4--|
--4--4-----4--4-----4--4--4-----|--4--4--5--5--3--3--|
--------------------------------|--------------------|


Gtr I
--------------------------------|------------------------------------|
--------------------------------|------------------------------------|
-----6--0--4--6--0--5--4--3-----|--9--------------8--11--11--11--11--|
--5--------------------------5--|-----8--------7-----10--10--10--10--|
--------------------------------|--------7--6---------9---9---9---9--|
--------------------------------|------------------------------------|

Gtr II
--------------------------------|------------------------------------|
--------------------------------|------------------------------------|
--6--6-----6--6-----6--6--6-----|--7--7--7--8--8--8--11--11--11--11--|
--5--5-----5--5-----5--5--5-----|--6--6--6--7--7--7--10--10--10--10--|
--4--4-----4--4-----4--4--4-----|--5--5--5--6--6--6---9---9---9---9--|
--------------------------------|------------------------------------|



-----------------------|--------------------------|
--6--6--6--6--7--7--7--|--6--6--6--6--------------|
-----------------------|--------------------------|
--3--3--3--3--4--4--4--|--3--3--3--3--6--7--6--5--|
-----------------------|--------------5--6--5--4--|
-----------------------|--------------4--5--4--3--|

-----------------------|--------------------|
--6--6--6--6--7--7--7--|--6--6--6-----------|
-----------------------|--------------------|
--3--3--3--3--4--4--4--|--3--3--3--6--7--6--|
-----------------------|-----------5--6--5--|
-----------------------|-----------4--5--4--|



Gtr I
--------------------------------|--------------------|
--------------------------------|--------------------|
-----6--0--4--6--0--5--4--3-----|--6--6--7--7--5--5--|
--5--------------------------5--|--5--5--6--6--4--4--|
--------------------------------|--4--4--5--5--3--3--|
--------------------------------|--------------------|

Gtr II
--------------------------------|--------------------|
--------------------------------|--------------------|
--6--6-----6--6-----6--6--6-----|--6--6--7--7--5--5--|
--5--5-----5--5-----5--5--5-----|--5--5--6--6--4--4--|
--4--4-----4--4-----4--4--4-----|--4--4--5--5--3--3--|
--------------------------------|--------------------|


Gtr I
--------------------------------|------------------------------------|
--------------------------------|------------------------------------|
-----6--0--4--6--0--5--4--3-----|--9--------------8--11--11--11--11--|
--5--------------------------5--|-----8--------7-----10--10--10--10--|
--------------------------------|--------7--6---------9---9---9---9--|
--------------------------------|------------------------------------|

Gtr II
--------------------------------|------------------------------------|
--------------------------------|------------------------------------|
--6--6-----6--6-----6--6--6-----|--7--7--7--8--8--8--11--11--11--11--|
--5--5-----5--5-----5--5--5-----|--6--6--6--7--7--7--10--10--10--10--|
--4--4-----4--4-----4--4--4-----|--5--5--5--6--6--6---9---9---9---9--|
--------------------------------|------------------------------------|


Gtr I
--------------------------------|--------------------|
--------------------------------|--------------------|
-----6--------------5--4--3-----|--------------------|
--5--------------------------5--|--------------------|
--------------------------------|--------------------|
--------------------------------|--------------------|

Gtr II
--------------------------------|--------------------|
--------------------------------|--------------------|
--6--6--------------6--6--6-----|--------------------|
--5--5--------------5--5--5-----|--------------------|
--4--4--------------4--4--4-----|--------------------|
--------------------------------|--------------------|


Gtr I
--------------------------------|------------------------------------|
--------------------------------|------------------------------------|
-----6--0--4--6--0--5--4--3-----|--9--------------8--11--11--11--11--|
--5--------------------------5--|-----8--------7-----10--10--10--10--|
--------------------------------|--------7--6---------9---9---9---9--|
--------------------------------|------------------------------------|

Gtr II
--------------------------------|------------------------------------|
--------------------------------|------------------------------------|
--6--6-----6--6-----6--6--6-----|--7--7--7--8--8--8--11--11--11--11--|
--5--5-----5--5-----5--5--5-----|--6--6--6--7--7--7--10--10--10--10--|
--4--4-----4--4-----4--4--4-----|--5--5--5--6--6--6---9---9---9---9--|
--------------------------------|------------------------------------|


Gtr I
--------------------------------------|
--------------------------------------|
--11--11--11--11--11--11--11--11--11--|
--10--10--10--10--10--10--10--10--10--|
---9---9---9---9---9---9---9---9---9--|
--------------------------------------|

Gtr II
--------------------------------------|
--------------------------------------|
--11--11--11--11--11--11--11--11--11--|
--10--10--10--10--10--10--10--10--10--|
---9---9---9---9---9---9---9---9---9--|
--------------------------------------|



-----------------------|--------------------------|
--6--6--6--6--7--7--7--|--6--6--6--6--------------|
-----------------------|--------------------------|
--3--3--3--3--4--4--4--|--3--3--3--3--6--7--6--5--|
-----------------------|--------------5--6--5--4--|
-----------------------|--------------4--5--4--3--|

-----------------------|--------------------|
--6--6--6--6--7--7--7--|--6--6--6-----------|
-----------------------|--------------------|
--3--3--3--3--4--4--4--|--3--3--3--6--7--6--|
-----------------------|-----------5--6--5--|
-----------------------|-----------4--5--4--|



Gtr I
----------------------------------|----------------------------------|
----------------------------------|----------------------------------|
----------------------------------|----------------------------------|
----------------------------------|----------------------------------|
----------------------------------|----------------------------------|
--9-9-9-9-9-9-9-9-9-9-9-9-9-9-9-9-|--9-9-9-9-9-9-9-9-9-9-9-9-9-9-9-9-|
N.H-----------------------------------------------------------------

Gtr II
--------------------------|--------------------------|
--------------------------|--------------------------|
--8-----------8--------8--|--------------8-----8-----|
--7-----------7--------7--|--------------7-----7-----|
--6-----------6--------6--|--------------6-----6-----|
--------------------------|--------------------------|


Gtr I
----------------------------------|------------------|
----------------------------------|------------------|
----------------------------------|------------------|
----------------------------------|------------------|
----------------------------------|------------------|
--9-9-9-9-9-9-9-9-9-9-9-9-9-9-9-9-|--9-9-9-9-9-9-9-9-|
N.H-------------------------------------------------

Gtr II
--------------------------|--------------|
--------------------------|--------------|
--8-----------8--------8--|--------------|
--7-----------7--------7--|-----6--7--6--|
--6-----------6--------6--|-----5--6--5--|
--------------------------|-----4--5--4--|


Gtr I
----------------------------------|----------------------------------|
----------------------------------|----------------------------------|
----------------------------------|----------------------------------|
----------------------------------|----------------------------------|
----------------------------------|----------------------------------|
--9-9-9-9-9-9-9-9-9-9-9-9-9-9-9-9-|--9-9-9-9-9-9-9-9-9-9-9-9-9-9-9-9-|
N.H-----------------------------------------------------------------

Gtr II
--------------------------|--------------------------|
--------------------------|--------------------------|
--8-----------8--------8--|--------------8-----8-----|
--7-----------7--------7--|--------------7-----7-----|
--6-----------6--------6--|--------------6-----6-----|
--------------------------|--------------------------|


Gtr I
----------------------------------|------------------|
----------------------------------|------------------|
----------------------------------|------------------|
----------------------------------|------------------|
----------------------------------|------------------|
--9-9-9-9-9-9-9-9-9-9-9-9-9-9-9-9-|--9-9-9-9-9-9-9-9-|
N.H-------------------------------------------------

Gtr II
--------------------------|--------------|
--------------------------|--------------|
--8-----------8--------8--|--------------|
--7-----------7--------7--|-----6--7--6--|
--6-----------6--------6--|-----5--6--5--|
--------------------------|-----4--5--4--|



----------------|-------------------|-------------|
----------------|-------------------|-------------|
-----------8----|-------------------|--------8----|
-----------7----|-------------------|--------7----|
--2--2--2--6----|-------------------|--------6----|
--0--0--0-------|-------------------|-------------|
pm-------                                 

-------------------------|-------------------|-------------|
-------------------------|-------------------|-------------|
--------------------8----|-------------------|--------8----|
--------------------7----|-------------------|--------7----|
-----------2--2--2--6----|-------------------|--------6----|
-----------0--0--0-------|-------------------|-------------|
         pm-------                                 

-----------------|-----------------------|
-----------------|-----------------------|
-----------------|--6--7--6--5--4--3--2--|
-----------------|--5--6--5--4--3--2--1--|
-----------------|--4--5--4--3--2--1--0--|
-----------------|-----------------------|
            


----------------|-------------------|-------------|
----------------|-------------------|-------------|
-----------8----|-------------------|--------8----|
-----------7----|-------------------|--------7----|
--2--2--2--6----|-------------------|--------6----|
--0--0--0-------|-------------------|-------------|
pm-------                                 

-------------------------|-------------------|-------------|
-------------------------|-------------------|-------------|
--------------------8----|-------------------|--------8----|
--------------------7----|-------------------|--------7----|
-----------2--2--2--6----|-------------------|--------6----|
-----------0--0--0-------|-------------------|-------------|
         pm-------                                

-----------------|--------------------------|
-----------------|--------------------------|
-----------------|--6--7--6--5--4--3--2-----|
-----------------|--5--6--5--4--3--2--1-----|
-----------------|--4--5--4--3--2--1--0-----|
-----------------|--------------------------|
            


Gtr I [Distortion]
-------------------|-------------------|-------------------|-------------------|
-------------------|-------------------|-------------------|-------------------|
--------7----------|-------------------|-------------------|-------------------|
-----7-------------|-------------------|-------------------|-------------------|
--5----------------|-------------------|-------------------|-------------------|
-------------------|-------------------|-------------------|-------------------|

Gtr II [Clean]
-------------------|-------------------|-------------------|-------------------|
-------------------|-------------------|-------------------|-------------------|
--7----------------|-------------------|-------------------|-------------------|
--7----------------|-------------------|-------------------|-------------------|
--5----------------|-------------------|-------------------|-------------------|
-------------------|-------------------|-------------------|-------------------|


Gtr I [Distorion]  
-------------------|-------------------|-------------------|-------------------|
-------------------|-------------------|-------------------|-------------------|
--7-----------7----|-------------------|-----8-------------|--------------6----|
--8--------8-------|-------------------|-----8-------------|--------------7----|
--5-----5----------|-------------------|--6--6-------------|--4-----------4----|
--6--6-------------|-------------------|-------------------|--5--------5--5----|

Gtr II [Clean]
-------------------|-------------------|-------------------|-------------------|
-------------------|-------------------|-------------------|-------------------|
--7----------------|-------------------|--8----------------|--6----------------|
--8----------------|-------------------|--8----------------|--7----------------|
--5----------------|-------------------|--6----------------|--4----------------|
--6----------------|-------------------|-------------------|--5----------------|



Gtr I [Distorion] 
--------------------------|-------------------|
--------------------------|-------------------|
--------7-----------------|-------------------|
-----7--------------------|-------------------|
--5-----------------------|-------------------|
--------------------------|-------------------|

Gtr II [Clean]
------------15--------15----|--15--------15------15--------|
------18--------18----------|------18--------18------18----|
--14------------------------|------------------------------|
----------------------------|------------------------------|
----------------------------|------------------------------|
----------------------------|------------------------------|


Gtr I [Distorion] 
-------------------|--------------------|
-------------------|--------------------|
--8----------------|--6--------7--------|
--7----------------|--------------------|
--5----------------|--------------------|
-------------------|--------------------|

Gtr II [Clean]
------------15--------15------|--15--------15------15--------|
------18--------18--------18--|------18--------18------18----|
--14--------------------------|------------------------------|
------------------------------|------------------------------|
------------------------------|------------------------------|
------------------------------|------------------------------|


Gtr I [Distorion] 
-------------------------|-------------------|
-------------------------|-------------------|
-------------7-----------|-------------------|
----------8--------------|-------------------|
-------5-----------------|-------------------|
--6----------------------|-------------------|

Gtr II [Clean]
------------------------------|--------------------------------|
------------11------11--------|------11------11------11--11----|
------14--------14------14----|----------14------14------------|
--12--------------------------|--------------------------------|
------------------------------|--------------------------------|
------------------------------|--------------------------------|
 

Gtr I [Distorion] 
-----------------------|--------------------|
-----------------------|--------------------|
--8--------------------|-----------6--------|
--8--------------------|-----------7--------|
--6--------------------|--4--------4--------|
-----------------------|--5--------5--------|

Gtr II [Clean]
-----------------------------|-----------------------------|
-------13-----13-----13--13--|-------17-----17-----17--17--|
-------17-----17-----17--17--|-------21-----21-----21--21--|
-----------------------------|-----------------------------|
-----------------------------|-----------------------------|
-----------------------------|-----------------------------|

Gtr III [Clean]
-----------------------------|--16-(16)--------------------------|
-----------------------------|----------17-(17)------------------|
-----------------------------|------------------18-(18)-18-(18)--|
-----------------------------|-----------------------------------|
-----------------------------|-----------------------------------|
-----------------------------|-----------------------------------|



Gtr I [Distorion] 
--------------------------|-------------------|
--------------------------|-------------------|
--------7-----------------|-------------------|
-----7--------------------|-------------------|
--5-----------------------|-------------------|
--------------------------|-------------------|

Gtr II [Clean]
------------15--------15----|--15--------15------15--------|
------18--------18----------|------18--------18------18----|
--14------------------------|------------------------------|
----------------------------|------------------------------|
----------------------------|------------------------------|
----------------------------|------------------------------|


Gtr I [Distorion] 
-------------------|--------------------|
-------------------|--------------------|
--8----------------|--6--------7--------|
--7----------------|--------------------|
--5----------------|--------------------|
-------------------|--------------------|

Gtr II [Clean]
------------15--------15------|--15--------15------15--------|
------18--------18--------18--|------18--------18------18----|
--14--------------------------|------------------------------|
------------------------------|------------------------------|
------------------------------|------------------------------|
------------------------------|------------------------------|


Gtr I [Distorion] 
-------------------------|-------------------|
-------------------------|-------------------|
-------------7-----------|-------------------|
----------8--------------|-------------------|
-------5-----------------|-------------------|
--6----------------------|-------------------|

Gtr II [Clean]
------------------------------|--------------------------------|
------------11------11--------|------11------11------11--11----|
------14--------14------14----|----------14------14------------|
--12--------------------------|--------------------------------|
------------------------------|--------------------------------|
------------------------------|--------------------------------|


Gtr I [Distorion] 
--------------------------|-------------------|
--------------------------|-------------------|
-----8--------------------|--6----------------|
-----8--------------------|--7----------------|
--6--6--------------------|--4----------------|
--------------------------|--5----------------|

Gtr II [Clean]
-----------------------------|-----------------------------|
-----------------------------|-----------------------------|
-----------------------------|-----------------------------|
-----------------------------|-----------------------------|
-----------------------------|-----------------------------|
-----------------------------|-----------------------------|



Gtr I
--------------------------|--------------------------|
--------------------------|--------------------------|
--7--7--7--7--7--7--7--7--|--7--7--7--7--6--6--7--7--|
--------------------------|--------------------------|
--5--5--5--5--5--5--5--5--|--5--5--5--5--4--4--5--5--|
--------------------------|--------------------------|

Gtr II
--------------------------|--------------------------|
--------------------------|--------------------------|
--7--7--7--7--7--7--7--7--|--7--7--7--7--6--6--7--7--|
--7--7--7--7--7--7--7--7--|--7--7--7--7--7--7--7--7--|
--5--5--5--5--5--5--5--5--|--5--5--5--5--5--5--5--5--|
--------------------------|--------------------------|


Gtr I
--------------------------|--------------------------|
--------------------------|--------------------------|
--8--8--8--8--8--8--7--7--|--6--6--6--6--7--7--7--7--|
--------------------------|--------------------------|
--6--6--6--6--6--6--5--5--|--4--4--4--4--5--5--5--5--|
--------------------------|--------------------------|

Gtr II 
--------------------------|--------------------------|
--------------------------|--------------------------|
--8--8--8--8--8--8--7--7--|--6--6--6--6--7--7--7--7--|
--7--7--7--7--7--7--7--7--|--7--7--7--7--7--7--7--7--|
--5--5--5--5--5--5--5--5--|--4--4--4--4--5--5--5--5--|
--------------------------|--5--5--5--5--------------|


Gtr I
--------------------------|--------------------------|
--------------------------|--------------------------|
--------------------------|--------------------------|
--8--8--8--8--8--8--8--8--|--8--8--8--8--8--8--8--8--|
--8--8--8--8--8--8--8--8--|--8--8--8--8--8--8--8--8--|
--6--6--6--6--6--6--6--6--|--6--6--6--6--6--6--6--6--|

Gtr II  
--------------------------|--------------------------|
--------------------------|--------------------------|
--------------------------|--------------------------|
--8--8--8--8--8--8--8--8--|--8--8--8--8--8--8--8--8--|
--8--8--8--8--8--8--8--8--|--8--8--8--8--8--8--8--8--|
--6--6--6--6--6--6--6--6--|--6--6--6--6--6--6--6--6--|


Gtr I
--------------------------|--------------------------|
--------------------------|--------------------------|
--8--8--8--8--8--8--8--8--|--------------6--6--6--6--|
--8--8--8--8--8--8--8--8--|--------------7--7--7--7--|
--6--6--6--6--6--6--6--6--|--4--4--4--4--4--4--4--4--|
--------------------------|--5--5--5--5--5--5--5--5--|

Gtr II 
--------------------------|--------------------------|
--------------------------|--------------------------|
--8--8--8--8--8--8--8--8--|--------------6--6--6--6--|
--8--8--8--8--8--8--8--8--|--------------7--7--7--7--|
--6--6--6--6--6--6--6--6--|--4--4--4--4--4--4--4--4--|
--------------------------|--5--5--5--5--5--5--5--5--|



Gtr I
--------------------------|--------------------------|
--------------------------|--------------------------|
--7--7--7--7--7--7--7--7--|--7--7--7--7--6--6--7--7--|
--------------------------|--------------------------|
--5--5--5--5--5--5--5--5--|--5--5--5--5--4--4--5--5--|
--------------------------|--------------------------|

Gtr II
--------------------------|--------------------------|
--------------------------|--------------------------|
--7--7--7--7--7--7--7--7--|--7--7--7--7--6--6--7--7--|
--7--7--7--7--7--7--7--7--|--7--7--7--7--7--7--7--7--|
--5--5--5--5--5--5--5--5--|--5--5--5--5--5--5--5--5--|
--------------------------|--------------------------|


Gtr I
--------------------------------|--------------------------|
--------------------------------|--------------------------|
--10--10--10--10--10--10--9--9--|--6--6--6--6--7--7--7--7--|
--------------------------------|--------------------------|
---8---8---8---8---8---8--7--7--|--4--4--4--4--5--5--5--5--|
--------------------------------|--------------------------|

Gtr II 
--------------------------|--------------------------|
--------------------------|--------------------------|
--8--8--8--8--8--8--7--7--|--6--6--6--6--7--7--7--7--|
--7--7--7--7--7--7--7--7--|--7--7--7--7--7--7--7--7--|
--5--5--5--5--5--5--5--5--|--4--4--4--4--5--5--5--5--|
--------------------------|--5--5--5--5--------------|


Gtr I
--------------------------|--------------------------|
--------------------------|--------------------------|
--------------------------|--------------------------|
--8--8--8--8--8--8--8--8--|--8--8--8--8--8--8--8--8--|
--8--8--8--8--8--8--8--8--|--8--8--8--8--8--8--8--8--|
--6--6--6--6--6--6--6--6--|--6--6--6--6--6--6--6--6--|

Gtr II  
--------------------------|--------------------------|
--------------------------|--------------------------|
--------------------------|--------------------------|
--8--8--8--8--8--8--8--8--|--8--8--8--8--8--8--8--8--|
--8--8--8--8--8--8--8--8--|--8--8--8--8--8--8--8--8--|
--6--6--6--6--6--6--6--6--|--6--6--6--6--6--6--6--6--|


Gtr I
--------------------------|--------------------------|
--------------------------|--------------------------|
--8--8--8--8--8--8--8--8--|--------------6--6--6--6--|
--8--8--8--8--8--8--8--8--|--------------7--7--7--7--|
--6--6--6--6--6--6--6--6--|--4--4--4--4--4--4--4--4--|
--------------------------|--5--5--5--5--5--5--5--5--|

Gtr II 
--------------------------|--------------------------|
--------------------------|--------------------------|
--8--8--8--8--8--8--8--8--|--------------6--6--6--6--|
--8--8--8--8--8--8--8--8--|--------------7--7--7--7--|
--6--6--6--6--6--6--6--6--|--4--4--4--4--4--4--4--4--|
--------------------------|--5--5--5--5--5--5--5--5--|



Gtr I
--------------------------|--------------------------|
--------------------------|--------------------------|
--7--7--7--7--7--7--7--7--|--7--7--7--7--6--6--7--7--|
--------------------------|--------------------------|
--5--5--5--5--5--5--5--5--|--5--5--5--5--4--4--5--5--|
--------------------------|--------------------------|

Gtr II
--------------------------|--------------------------|
--------------------------|--------------------------|
--7--------7--------7-----|-----7--7--7--6--6--7--7--|
--7--------7--------7-----|-----7--7--7--7--7--7--7--|
--5--------5--------5-----|-----5--5--5--5--5--5--5--|
--------------------------|--------------------------|


Gtr I
--------------------------|--------------------------|
--------------------------|--------------------------|
--8--8--8--8--8--8--7--7--|--6--6--6--6--7--7--7--7--|
--------------------------|--------------------------|
--6--6--6--6--6--6--5--5--|--4--4--4--4--5--5--5--5--|
--------------------------|--------------------------|

Gtr II 
--------------------------|--------------------------|
--------------------------|--------------------------|
--6--------6--------7-----|-----7--7--7--7--7--7--7--|
--7--------7--------7-----|-----7--7--7--7--7--7--7--|
--4--------4--------5-----|-----5--5--5--5--5--5--5--|
--5--------5--------------|--------------------------|


Gtr I
--------------------------|--------------------------|
--------------------------|--------------------------|
--------------------------|--------------------------|
--8--8--8--8--8--8--8--8--|--8--8--8--8--8--8--8--8--|
--8--8--8--8--8--8--8--8--|--8--8--8--8--8--8--8--8--|
--6--6--6--6--6--6--6--6--|--6--6--6--6--6--6--6--6--|

Gtr II  
--------------------------|--------------------------|
--------------------------|--------------------------|
--------------------------|--------------------------|
--------------------------|--------------------------|
--5--------5--------5-----|-----5--------5--5--5--5--|
--6--------6--------6-----|-----6--------6--6--6--6--|


Gtr I
--------------------------|--------------------------|
--------------------------|--------------------------|
--8--8--8--8--8--8--8--8--|--------------6--6--6--6--|
--8--8--8--8--8--8--8--8--|--------------7--7--7--7--|
--6--6--6--6--6--6--6--6--|--4--4--4--4--4--4--4--4--|
--------------------------|--5--5--5--5--5--5--5--5--|

Gtr II 
--------------------------|--------------------------|
--------------------------|--------------------------|
--8--8--8--8--8--8--8--8--|--------------6--6--6--6--|
--8--8--8--8--8--8--8--8--|--------------7--7--7--7--|
--6--6--6--6--6--6--6--6--|--4--4--4--4--4--4--4--4--|
--------------------------|--5--5--5--5--5--5--5--5--|



Gtr I
--------------------------|--------------------------|
--------------------------|--------------------------|
--7--7--7--7--7--7--7--7--|--7--7--7--7--6--6--7--7--|
--------------------------|--------------------------|
--5--5--5--5--5--5--5--5--|--5--5--5--5--4--4--5--5--|
--------------------------|--------------------------|

Gtr II
--------------------------|--------------------------|
--------------------------|--------------------------|
--7--------7--------7-----|-----7--7--7--6--6--7--7--|
--7--------7--------7-----|-----7--7--7--7--7--7--7--|
--5--------5--------5-----|-----5--5--5--5--5--5--5--|
--------------------------|--------------------------|


Gtr I
--------------------------|--------------------------|
--------------------------|--------------------------|
--8--8--8--8--8--8--7--7--|--6--6--6--6--7--7--7--7--|
--------------------------|--------------------------|
--6--6--6--6--6--6--5--5--|--4--4--4--4--5--5--5--5--|
--------------------------|--------------------------|

Gtr II 
--------------------------|--------------------------|
--------------------------|--------------------------|
--6--------6--------7-----|-----7--7--7--7--7--7--7--|
--7--------7--------7-----|-----7--7--7--7--7--7--7--|
--4--------4--------5-----|-----5--5--5--5--5--5--5--|
--5--------5--------------|--------------------------|


Gtr I
--------------------------|--------------------------|
--------------------------|--------------------------|
--------------------------|--------------------------|
--8--8--8--8--8--8--8--8--|--8--8--8--8--8--8--8--8--|
--8--8--8--8--8--8--8--8--|--8--8--8--8--8--8--8--8--|
--6--6--6--6--6--6--6--6--|--6--6--6--6--6--6--6--6--|

Gtr II  
--------------------------|--------------------------|
--------------------------|--------------------------|
--------------------------|--------------------------|
--------------------------|--------------------------|
--5--------5--------5-----|-----5--------5--5--5--5--|
--6--------6--------6-----|-----6--------6--6--6--6--|


Gtr I
--------------------------|--------------------------|
--------------------------|--------------------------|
--8--8--8--8--8--8--8--8--|--------------6--6--6--6--|
--8--8--8--8--8--8--8--8--|--------------7--7--7--7--|
--6--6--6--6--6--6--6--6--|--4--4--4--4--4--4--4--4--|
--------------------------|--5--5--5--5--5--5--5--5--|

Gtr II 
--------------------------|--------------------------|
--------------------------|--------------------------|
--8--8--8--8--8--8--8--8--|--------------6--6--6--6--|
--8--8--8--8--8--8--8--8--|--------------7--7--7--7--|
--6--6--6--6--6--6--6--6--|--4--4--4--4--4--4--4--4--|
--------------------------|--5--5--5--5--5--5--5--5--|



Gtr I
----------------|--------------------------|--------------------------|
----------------|--------------------------|--------------------------|
-----------8----|--7--7--7--7--7--7--7--7--|--7--7--7--7--6--6--7--7--|
-----------7----|--------------------------|--------------------------|
--2--2--2--6----|--5--5--5--5--5--5--5--5--|--5--5--5--5--4--4--5--5--|
--0--0--0-------|--------------------------|--------------------------|
pm-------

Gtr II
----------------|--------------------------|--------------------------|
----------------|--------------------------|--------------------------|
-----------8----|--7--7--7--7--7--7--7--7--|--7--7--7--7--6--6--7--7--|
-----------7----|--7--7--7--7--7--7--7--7--|--7--7--7--7--7--7--7--7--|
--2--2--2--6----|--5--5--5--5--5--5--5--5--|--5--5--5--5--4--4--5--5--|
--0--0--0-------|--------------------------|--------------------------|
pm-------


Gtr I
----------------|--------------------------|--------------------------|
----------------|--------------------------|--------------------------|
-----------8----|--8--8--8--8--8--8--7--7--|--6--6--6--6--7--7--7--7--|
-----------7----|--------------------------|--------------------------|
--2--2--2--6----|--6--6--6--6--6--6--5--5--|--4--4--4--4--5--5--5--5--|
--0--0--0-------|--------------------------|--------------------------|
pm-------

Gtr II
----------------|--------------------------|--------------------------|
----------------|--------------------------|--------------------------|
-----------8----|--8--8--8--8--8--8--7--7--|--6--6--6--6--7--7--7--7--|
-----------7----|--7--7--7--7--7--7--7--7--|--7--7--7--7--7--7--7--7--|
--2--2--2--6----|--5--5--5--5--5--5--5--5--|--4--4--4--4--5--5--5--5--|
--0--0--0-------|--------------------------|--5--5--5--5--------------|
pm-------


Gtr I
----------------------------------|----------------------------------|
----------------------------------|----------------------------------|
--15--15--15--15--15--15--15--15--|--15--15--15--15--15--15--15--15--|
----------------------------------|----------------------------------|
--13--13--13--13--13--13--13--13--|--13--13--13--13--13--13--13--13--|
----------------------------------|----------------------------------|

Gtr II
--------------------------|--------------------------|
--------------------------|--------------------------|
--------------------------|--------------------------|
--8--8--8--8--8--8--8--8--|--8--8--8--8--8--8--8--8--|
--8--8--8--8--8--8--8--8--|--8--8--8--8--8--8--8--8--|
--6--6--6--6--6--6--6--6--|--6--6--6--6--6--6--6--6--|


Gtr I
----------------------------------|----------------|--------------------------|
----------------------------------|----------------|--------------------------|
--15--15--15--15--15--15--15--15--|-----------8----|--7--7--7--7--6--6--6--6--|
----------------------------------|-----------7----|--------------------------|
--13--13--13--13--13--13--13--13--|--2--2--2--6----|--5--5--5--5--4--4--4--4--|
----------------------------------|--0--0--0-------|--------------------------|
                                   pm-------
Gtr II
--------------------------|----------------|--------------------------|
--------------------------|----------------|--------------------------|
--8--8--8--8--8--8--8--8--|-----------8----|--7--7--7--7--6--6--6--6--|
--8--8--8--8--8--8--8--8--|-----------7----|--7--7--7--7--7--7--7--7--|
--6--6--6--6--6--6--6--6--|--2--2--2--6----|--5--5--5--5--5--5--5--5--|
--------------------------|--0--0--0-------|--------------------------|
                           pm-------


Gtr I     
--------------------------|--------------------------|----------------|
--------------------------|--------------------------|----------------|
--7--7--7--7--7--7--7--7--|--7--7--7--7--6--6--7--7--|-----------8----|
--------------------------|--------------------------|-----------7----|
--5--5--5--5--5--5--5--5--|--5--5--5--5--4--4--5--5--|--2--2--2--6----|
--------------------------|--------------------------|--0--0--0-------|
                                                      pm-------
Gtr II
--------------------------|--------------------------|----------------|
--------------------------|--------------------------|----------------|
--7--7--7--7--7--7--7--7--|--7--7--7--7--6--6--7--7--|-----------8----|
--7--7--7--7--7--7--7--7--|--7--7--7--7--7--7--7--7--|-----------7----|
--5--5--5--5--5--5--5--5--|--5--5--5--5--5--5--5--5--|--2--2--2--6----|
--------------------------|--------------------------|--0--0--0-------|
                                                      pm-------


Gtr I
--------------------------------|--------------------------|
--------------------------------|--------------------------|
--10--10--10--10--10--10--9--9--|--6--6--6--6--7--7--7--7--|
--------------------------------|--------------------------|
---8---8---8---8---8---8--7--7--|--4--4--4--4--5--5--5--5--|
--------------------------------|--------------------------|

Gtr II
--------------------------|--------------------------|
--------------------------|--------------------------|
--8--8--8--8--8--8--7--7--|--6--6--6--6--7--7--7--7--|
--7--7--7--7--7--7--7--7--|--7--7--7--7--7--7--7--7--|
--5--5--5--5--5--5--5--5--|--4--4--4--4--5--5--5--5--|
--------------------------|--5--5--5--5--------------|


Gtr I
----------------------------------|----------------------------------|
----------------------------------|----------------------------------|
--15--15--15--15--15--15--15--15--|--15--15--15--15--15--15--15--15--|
----------------------------------|----------------------------------|
--13--13--13--13--13--13--13--13--|--13--13--13--13--13--13--13--13--|
----------------------------------|----------------------------------|

Gtr II
--------------------------|--------------------------|
--------------------------|--------------------------|
--------------------------|--------------------------|
--8--8--8--8--8--8--8--8--|--8--8--8--8--8--8--8--8--|
--8--8--8--8--8--8--8--8--|--8--8--8--8--8--8--8--8--|
--6--6--6--6--6--6--6--6--|--6--6--6--6--6--6--6--6--|


Gtr I
----------------------------------|----------------------------------|
----------------------------------|----------------------------------|
--15--15--15--15--15--15--15--15--|--15--15--15--15--15--15--15--15--|
----------------------------------|----------------------------------|
--13--13--13--13--13--13--13--13--|--13--13--13--13--13--13--13--13--|
----------------------------------|----------------------------------|

Gtr II
--------------------------|--------------------------|
--8--8--8--8--8--8--8--8--|--------------6--6--6--6--|
--8--8--8--8--8--8--8--8--|--------------7--7--7--7--|
--6--6--6--6--6--6--6--6--|--4--4--4--4--4--4--4--4--|
--------------------------|--5--5--5--5--5--5--5--5--|



----------------|-------------------|-------------|
----------------|-------------------|-------------|
-----------8----|-------------------|--------8----|
-----------7----|-------------------|--------7----|
--2--2--2--6----|-------------------|-----2--6----|
--0--0--0-------|-------------------|-----0-------|
pm-------                                 -

-------------------------|-------------------|-------------|
-------------------------|-------------------|-------------|
--------------------8----|-------------------|--------8----|
--------------------7----|-------------------|--------7----|
-----------2--2--2--6----|-------------------|-----2--6----|
-----------0--0--0-------|-------------------|-----0-------|
         pm-------                                 -

-----------------|--------------------------|
-----------------|--------------------------|
-----------------|--6--7--6--5--4--3--2-----|
-----------------|--5--6--5--4--3--2--1-----|
--------------2--|--4--5--4--3--2--1--0-----|
--------------0--|--------------------------|
            pm-



--------------------------|--------------------------|
--------------------------|--------------------------|
--3--3--3-----------------|--------------------------|
--2--2--2-----------------|-----------------4--5--4--|
--1--1--1-----------------|-----------------3--4--3--|
--------------------------|-----------------2--3--2--|
       
--------------------------|-----------------------------|
--------------------------|-----------------------------|
--3--3--3-----------------|-----------------------------|
--2--2--2-----------------|--4--5--4--------------------|
--1--1--1-----x--2--------|--3--4--3--2--2--2--2--------|
--------------x--0--------|--2--3--2--0--0--0--0--------|
                                    pm-------


--------------------------|--------------------------|
--------------------------|--------------------------|
--3--3--3-----------------|--------------------------|
--2--2--2-----------------|-----------------4--5--4--|
--1--1--1-----------------|-----------------3--4--3--|
--------------------------|-----------------2--3--2--|
       
--------------------------|-----------------------------|
--------------------------|-----------------------------|
--3--3--3-----------------|-----------------------------|
--2--2--2-----------------|--4--5--4--------------------|
--1--1--1-----x--2--------|--3--4--3--2--2--2--2--------|
--------------x--0--------|--2--3--2--0--0--0--0--------|
                                    pm-------


--------------------------|--------------------------|
--------------------------|--------------------------|
--3--3--3-----------------|--------------------------|
--2--2--2-----------------|-----------------4--5--4--|
--1--1--1-----------------|-----------------3--4--3--|
--------------------------|-----------------2--3--2--|
       
--------------------------|-----------------------------|
--------------------------|-----------------------------|
--3--3--3-----------------|-----------------------------|
--2--2--2-----------------|--4--5--4--------------------|
--1--1--1-----x--2--------|--3--4--3--2--2--2--2--------|
--------------x--0--------|--2--3--2--0--0--0--0--------|
                                    pm-------


--------------------------|--------------------------|
--------------------------|--------------------------|
--3--3--3-----------------|--------------------------|
--2--2--2-----------------|-----------------4--5--4--|
--1--1--1-----------------|-----------------3--4--3--|
--------------------------|-----------------2--3--2--|
       
--------------------------|-----------------------------|
--------------------------|-----------------------------|
--3--3--3-----------------|-----------------------------|
--2--2--2-----------------|--4--5--4--------------------|
--1--1--1-----x--2--------|--3--4--3--2--2--2--2--------|
--------------x--0--------|--2--3--2--0--0--0--0--------|
                                    pm-------


--------------------------|
--------------------------|
--3--3--3-----------------|
--2--2--2-----------------|
--1--1--1-----------------|
--------------------------|
       

Добавлено: 19.05.2012
Другие материалы по этой песне:

Страница создана 10.04.2012
http://primanota.ru/dillinger-escape-plan/sunshine-the-werewolf-chords.htm
Привет, Гость.
Предлагаем пройти революционный курс по гитаре.
Подарок от PrimaNota.Ru, забирай!