PrimaNota.ru - самый крупный в мире бесплатный архив песенных текстов, аккордов, табулатур и нот


Dillinger Escape Plan - Room Full Of Eyes - таба, видео

Регистрация Запомнить меня
Войти через:  Facebook Google Twitter Vk Yandex Mail.ru

Dillinger Escape Plan - Room Full Of Eyes - таба, видео

Печатать
Просмотров: 147
Уроки эстрадного вокала в Санкт-Петербурге
Авторы музыки: Ben Weinman
Авторы текста: Greg Puciato
-------------------------------------------------------------------------------
                             ROOM FULL OF EYES- The Dillinger Escape Plan
-------------------------------------------------------------------------------
Tabbed by:missmachine101
Email:

Tuning:Standard

here is just the basics, it is going to be a pain in the ass to right down and tab every 
little strike of the chord Ben does, so i am presenting this small tab and i will put a 
video of me actually playing the song on youtube
 http://www.youtube.com/missmachine101

INTRO
After the drums come in you do something like this:
e|------------------------------------------------|
B|------------------------------------------------|
G|-6---6-6-6--6-6-5-5-6-7-7-7-2-2-----------------|
D|-5---5-5-5--5-5-4-4-5-6-6-6-2-2-----------------|
A|-4---4-4-4--4-4-3-3-4-5-5-5-0-0-----------------|
E|---54-5-------------------------<5>-<5>---------|

e|-----------------------------------------------------------------|
B|-----------------------------------------------------------------|
G|--6-66-55-7-7-7----6---6-6-66-6-66-55-77-66-666-6-6-66-666-6-6-6-|
D|--5-55-44-6-6-6----5---5-5-55-5-55-44-66-55-555-5-5-55-555-5-5-5-|
A|--4-44-33-5-5-5----4---4-4-44-4-44-33-55-44-444-4-4-44-444-4-4-4-|
E|----------------5-5--54------------------------------------------|
 then this small part
e|-----------------------------------------------|
B|-----------------------------------------------|
G|-6-5-4-6-5-4-6-5-4--4-5-6-9-10-----------------|
D|-x-x-x-x-x-x-x-x-x--x-x-x-x-x-11-5-4-----------|
A|-4-3-2-4-3-2-4-3-2--2-3-4-7-8-x--x-x-----------|
E|------------------------------9--3-2-----------|

e|----------------------------------------------------|
B|----------------------------------------------------|
G|----11-------11-1110-11-----8------8--8---7---------|
D|----10-------10-1011-10-----7------7--7---6---------|
A|----9--------9--9-10-9------6------6--6---5---------|
E|--00--000000-0--0--0----000---000-0-00---0----------|
pm the open E and repeat this twice


I will edit and post the rest because im tired right now
************************************

| /   slide up
| \   slide down
| h   hammer-on
| p   pull-off
| ~   vibrato
| +   harmonic
| x   Mute note
| b   Bend
| pb  Pre-bend
| br  Bend release
| pbr Pre-bend release
| brb Bend release bend

************************************
Добавлено: 30.03.2012
Другие материалы по этой песне:
  • Аккорды и текст

Страница создана 30.03.2012
http://primanota.ru/dillinger-escape-plan/room-full-of-eyes-chords.htm
Привет, Гость.
Предлагаем пройти революционный курс по гитаре.
Подарок от PrimaNota.Ru, забирай!