PrimaNota.ru - самый крупный в мире бесплатный архив песенных текстов, аккордов, табулатур и нот


Dillinger Escape Plan - Pig Latin - текст песни, таба, видео

Регистрация Запомнить меня
Войти через:  Facebook Google Twitter Vk Yandex Mail.ru

Dillinger Escape Plan - Pig Latin - текст песни, таба, видео

Печатать
Просмотров: 155
Авторы музыки: The Dillinger Escape Plan, Mike Patton

I found this elsewhere. I've edited it a lttle so it's a little neater. This is what I 
and it sounds fairly good. I also

Tabbed by; Richard Guy.

                            PM---------------------|
e|------------------------|------------4-----------|
B|------------------------|--------------3-4-------|
G|----2----1----3---2-----|------------------1-----|
D|--0---0----0----0---x---|-3-3-3-3-x--------------|
A|------------------------|------------------------|
E|------------------------|------------------------|

                            PM---------------------|
e|------------------------|------------4-----------|
B|------------------------|--------------3-4-------|
G|----2----1----3---2-----|------------------1-----|
D|--0---0----0----0---x---|-3-3-3-3-x--------------|
A|------------------------|------------------------|
E|------------------------|------------------------|

                            PM---------------------|
e|------------------------|------------4-----------|
B|------------------------|--------------3-4-------|
G|----2----1----3---2-----|------------------1-----|
D|--0---0----0----0---x---|-3-3-3-3-x--------------|
A|------------------------|------------------------|
E|------------------------|------------------------|

                            PM---------------------|
e|------------------------|------------4-----------|
B|------------------------|--------------3-4-------|
G|----2----1----3---2-----|------------------1-----|
D|--0---0----0----0---x---|-3-3-3-3-x--------------|
A|------------------------|------------------------|
E|------------------------|------------------------|

                            PM---------------------|
e|------------------------|------------4-----------|
B|------------------------|--------------3-4-------|
G|----2----1----3---2-----|------------------1-----|
D|--0---0----0----0---x---|-3-3-3-3-x--------------|
A|------------------------|------------------------|
E|------------------------|------------------------|

                            PM---------------------|
e|------------------------|------------4-----------|
B|------------------------|--------------3-4-------|
G|----2----1----3---2-----|------------------1-----|
D|--0---0----0----0---x---|-3-3-3-3-x--------------|
A|------------------------|------------------------|
E|------------------------|------------------------|

                            PM---------------------|
e|------------------------|------------4-----------|
B|------------------------|--------------3-4-------|
G|----2----1----3---2-----|------------------1-----|
D|--0---0----0----0---x---|-3-3-3-3-x--------------|
A|------------------------|------------------------|
E|------------------------|------------------------|

                            PM---------------------|
e|------------------------|------------4-----------|
B|------------------------|--------------3-4-------|
G|----2----1----3---2-----|------------------1-----|
D|--0---0----0----0---x---|-3-3-3-3-x--------------|
A|------------------------|------------------------|
E|------------------------|------------------------|

                            PM---------------------|
e|------------------------|------------4-----------|
B|------------------------|--------------3-4-------|
G|----2----1----3---2-----|------------------1-----|
D|--0---0----0----0---x---|-3-3-3-3-x--------------|
A|------------------------|------------------------|
E|------------------------|------------------------|
[Continues in background.]

e|----------------------|----------------------------------|
B|----------------------|----------------------------------|
G|----------------------|----------------------------------|
D|-7-6--6-6--6-6-8---7--|-10-10-10-10--10-10--10-10--10-10-|
A|-5-5--5-5--5-5-5-5----|-8--8--8--8---8--8---8--8---8--8--|
E|----------------------|----------------------------------|

e|----------------------|----------------------------------|
B|----------------------|----------------------------------|
G|----------------------|----------------------------------|
D|-7-6--6-6--6-6-8---7--|-10-10-10-10--10-10--10-10--10-10-|
A|-5-5--5-5--5-5-5-5----|-8--8--8--8---8--8---8--8---8--8--|
E|----------------------|----------------------------------|

e|----------------------|----------------------------------|
B|----------------------|----------------------------------|
G|----------------------|----------------------------------|
D|-7-6--6-6--6-6-8---7--|-10-10-10-10--10-10--10-10--10-10-|
A|-5-5--5-5--5-5-5-5----|-8--8--8--8---8--8---8--8---8--8--|
E|----------------------|----------------------------------|

e|----------------------|----------------------------------|
B|----------------------|----------------------------------|
G|----------------------|----------------------------------|
D|-7-6--6-6--6-6-8---7--|-10-10-10-10--10-10--10-10--10-10-|
A|-5-5--5-5--5-5-5-5----|-8--8--8--8---8--8---8--8---8--8--|
E|----------------------|----------------------------------|

e|----------------------|----------------------------------|
B|----------------------|----------------------------------|
G|----------------------|----------------------------------|
D|-7-6--6-6--6-6-8---7--|-10-10-10-10--10-10--10-10--10-10-|
A|-5-5--5-5--5-5-5-5----|-8--8--8--8---8--8---8--8---8--8--|
E|----------------------|----------------------------------|

e|----------------------|----------------------------------|
B|----------------------|----------------------------------|
G|----------------------|----------------------------------|
D|-7-6--6-6--6-6-8---7--|-10-10-10-10--10-10--10-10--10-10-|
A|-5-5--5-5--5-5-5-5----|-8--8--8--8---8--8---8--8---8--8--|
E|----------------------|----------------------------------|

e|----------------------|----------------------------------|
B|----------------------|----------------------------------|
G|----------------------|----------------------------------|
D|-7-6--6-6--6-6-8---7--|-10-10-10-10--10-10--10-10--10-10-|
A|-5-5--5-5--5-5-5-5----|-8--8--8--8---8--8---8--8---8--8--|
E|----------------------|----------------------------------|

e|----------------------|----------------------------------|
B|----------------------|----------------------------------|
G|----------------------|----------------------------------|
D|-7-6--6-6--6-6-8---7--|-10-10-10-10--10-10--10-10--10-10-|
A|-5-5--5-5--5-5-5-5----|-8--8--8--8---8--8---8--8---8--8--|
E|----------------------|----------------------------------|


e|------------------|
B|------------------|
G|-7----------------|
D|-6----------------|
A|-5--(5)--(5)--(5)-|
E|------------------|
[Change the harmonics on each repetition. Just play whatever you feel like. I often play 
three ADG strings with a different force, and that provides the change in sound. 
refered to as +'s from here-on in.]

e|------------------|
B|------------------|
G|-7----------------|
D|-6----------------|
A|-5--(+)--(+)--(+)-|
E|------------------|

e|------------------|
B|------------------|
G|-7----------------|
D|-6----------------|
A|-5--(+)--(+)--(+)-|
E|------------------|

e|------------------|
B|------------------|
G|-7----------------|
D|-6----------------|
A|-5--(+)--(+)--(+)-|
E|------------------|

e|------------------|
B|------------------|
G|-7----------------|
D|-6----------------|
A|-5--(+)--(+)--(+)-|
E|------------------|

e|------------------|
B|------------------|
G|-7----------------|
D|-6----------------|
A|-5--(+)--(+)--(+)-|
E|------------------|

e|------------------------|
B|------------------------|
G|-7--7--7--7--7--7--7--7-|
D|-6--6--6--6--6--6--6--6-|
A|-5--5--6--6--6--6--6--6-|
E|------------------------|
[A second guitar also plays harmonics.]

|--------------------|-----------------------------|
|o-------------------|-----------------------------|
|--------------------|-----------------------------|
|--7----6----8-7-6-7-|-----7----6----8-7----(5)----|
|o-5--0-4--0-6-5-4-5-|-0-0-5--0-4--0-6-5--0--------|
|--------------------|-----------------------------|

|-----------------------------------------|
|----------------------------------------o|
|-----------------------------------------|
|-----------7-bah..---------------7-etc..-|
|-8\7\6-6---5--------6-6--8\7\6-6-5------o|
|-6\5\4-4------------4-4--6\5\4-4---------|
Добавлено: 10.03.2012
Другие материалы по этой песне:

Страница создана 10.03.2012
http://primanota.ru/dillinger-escape-plan/pig-latin-chords.htm
Привет, Гость.
Предлагаем пройти революционный курс по гитаре.
Подарок от PrimaNota.Ru, забирай!