PrimaNota.ru - самый крупный в мире бесплатный архив песенных текстов, аккордов, табулатур и нот


Dillinger Escape Plan - Lurch - текст песни, таба, видео

Регистрация Запомнить меня
Войти через:  Facebook Google Twitter Vk Yandex Mail.ru

Dillinger Escape Plan - Lurch - текст песни, таба, видео

Печатать
Просмотров: 135
Уроки эстрадного вокала в Санкт-Петербурге
DILLINGER ESCAPE PLAN - LURCH (Ire Works)

STANDARD TUNING - EADGBe


Gtr I
--11--11--11-----11--11--11-----|--11--11--11-----11--11--11-----|
--10--10--10-----10--10--10-----|--10--10--10-----10--10--10-----|
---8---8---8------8---8---8-----|---8---8---8------8---8---8-----|
--------------------------------|--------------------------------|
--------------------------------|--------------------------------|
--------------------------------|--------------------------------|

Gtr II
--------------------------|--------------------------|
--4--4--4-----4--4--4-----|--4--4--4-----4--4--4-----|
--2--2--2-----2--2--2-----|--2--2--2-----2--2--2-----|
--------------------------|--------------------------|
--------------------------|--------------------------|
--------------------------|--------------------------|

Gtr I
--11--11--------------------|--------------------------|--------------|
--10--10--------------------|--------------------------|--------------|
---8---8--------------------|--------------------------|--------------|
----------------------------|--------------------------|--------------|
----------------------------|--------------------------|--------------|
----------------------------|--------------------------|--------------|

Gtr II
--------------------------|--------------------------|--------------|
--4--4--------------------|--------------------------|--------------|
--2--2--------------------|--------------------------|--------------|
--------------------------|--------------------------|--4--4--4--4--|
-----------6--6--6--6--6--|--6--6--6--3--3--3--3--3--|--2--2--2--2--|
-----------4--4--4--4--4--|--4--4--4--1--1--1--1--1--|--------------|
         pm-------------------------------------------------------



Gtr I
--11--11--11-----11--11--11-----|--11--11--11-----11--11-----|
--10--10--10-----10--10--10-----|--10--10--10-----10--10-----|
---8---8---8------8---8---8-----|---8---8---8------8---8-----|
--------------------------------|----------------------------|
--------------------------------|----------------------------|
--------------------------------|----------------------------|

Gtr II
--------------------------|-----------------------|
--4--4--4-----4--4--4-----|--4--4--4-----4--4-----|
--2--2--2-----2--2--2-----|--2--2--2-----2--2-----|
--------------------------|-----------------------|
--------------------------|-----------------------|
--------------------------|-----------------------|

Gtr I
--------------------------|-----------------------------|
--------------------------|-----------------------------|
--------------------------|-----------------------------|
--------------------------|-----------------------------|
--------------------------|-----------------------------|
--------------------------|-----------------------------|

Gtr II
--------------------------|-----------------------------|
--------------------------|-----------------------------|
--------------------------|-----------------------------|
--------------------------|-----------------4--4--4--4--|
--6--6--6--6--6--6--6--6--|--3--3--3--3--3--2--2--2--2--|
--4--4--4--4--4--4--4--4--|--1--1--1--1--1--------------|
pm----------------------------------------------------



Gtr I
--11--11--11-----11--11--11-----|--11--11--11-----11--11--11-----|
--10--10--10-----10--10--10-----|--10--10--10-----10--10--10-----|
---8---8---8------8---8---8-----|---8---8---8------8---8---8-----|
--------------------------------|--------------------------------|
--------------------------------|--------------------------------|
--------------------------------|--------------------------------|

Gtr II
--------------------------|--------------------------|
--4--4--4-----4--4--4-----|--4--4--4-----4--4--4-----|
--2--2--2-----2--2--2-----|--2--2--2-----2--2--2-----|
--------------------------|--------------------------|
--------------------------|--------------------------|
--------------------------|--------------------------|

Gtr I
--11--11--------------------|--------------------------|--------------|
--10--10--------------------|--------------------------|--------------|
---8---8--------------------|--------------------------|--------------|
----------------------------|--------------------------|--------------|
----------------------------|--------------------------|--------------|
----------------------------|--------------------------|--------------|

Gtr II
--------------------------|--------------------------|--------------|
--4--4--------------------|--------------------------|--------------|
--2--2--------------------|--------------------------|--------------|
--------------------------|--------------------------|--4--4--4--4--|
-----------6--6--6--6--6--|--6--6--6--3--3--3--3--3--|--2--2--2--2--|
-----------4--4--4--4--4--|--4--4--4--1--1--1--1--1--|--------------|
         pm-------------------------------------------------------



Gtr I
--11--11--11-----11--11--11-----|--11--11--11-----11--11-----|
--10--10--10-----10--10--10-----|--10--10--10-----10--10-----|
---8---8---8------8---8---8-----|---8---8---8------8---8-----|
--------------------------------|----------------------------|
--------------------------------|----------------------------|
--------------------------------|----------------------------|

Gtr II
--------------------------|-----------------------|
--4--4--4-----4--4--4-----|--4--4--4-----4--4-----|
--2--2--2-----2--2--2-----|--2--2--2-----2--2-----|
--------------------------|-----------------------|
--------------------------|-----------------------|
--------------------------|-----------------------|

Gtr I
--------------------------|-----------------------------|
--------------------------|-----------------------------|
--------------------------|-----------------------------|
--------------------------|-----------------------------|
--------------------------|-----------------------------|
--------------------------|-----------------------------|

Gtr II
--------------------------|-----------------------------|
--------------------------|-----------------------------|
--------------------------|-----------------------------|
--------------------------|-----------------------------|
--6--6--6--6--6--6--6--6--|--3--3--3--3--3--3--3--3--3--|
--4--4--4--4--4--4--4--4--|--1--1--1--1--1--1--1--1--1--|
pm----------------------------------------------------


--------------------|---------------------|
--------------------|---------------------|
--------------------|---------------------|
--------------------|---------------------|
--2\----------------|--1\--------0--------|
--------------------|---------------------|



------------------------|--------------------------|------------------------|
------------------------|--------------------------|------------------------|
------------------------|--------------------------|------------------------|
--4--4--4---------------|--------------------------|--4--4--4---------------|
--2--2--2--4----7----9--|--------------------------|--2--2--2--4----7----9--|
-----------2----5----7--|--------------------------|-----------2----5----7--|
 
--------------------------|-----------------|------------------------|
--------------------------|-----------------|------------------------|
-----4--------6-----------|--4--------------|------------------------|
--------8--0-----5--4--0--|-----8--5--4--0--|--4--4--4---------------|
--------------------------|-----------------|--2--2--2--4----7----9--|
--------------------------|-----------------|-----------2----5----7--|

-----------------------|------------------------|--------------------------|
-----------------------|------------------------|--------------------------|
--------4--------------|------------------------|-----4--------6-----------|
-----------8--5--4-----|--4--4--4---------------|--------8--0-----5--4--0--|
-----------------------|--2--2--2--4----7----9--|--------------------------|
-----------------------|-----------2----5----7--|--------------------------|

--------------|--------------------------|
--------------|--------------------------|
--4-----------|--------------------------|
-----8--5--4--|--------------------------|
--------------|--6--6--6--6--6--6--6--6--|
--------------|--4--4--4--4--4--4--4--4--|
    
--------------------------------------------------|--------------------------|
--------------------------------------------------|--------------------------|
--------------------------------------------------|--------------------------|
--------------------------------------------------|--------------------------|
--3--3--3--3--3--3--3--3--3--3--3--3--3--3--3--3--|--------------------------|
--1--1--1--1--1--1--1--1--1--1--1--1--1--1--1--1--|--------------------------|
pm----------------------------------------------


 
------------------------|-----------------------|------------------------|
------------------------|-----------------------|------------------------|
------------------------|--------4--------------|------------------------|
--4--4--4---------------|-----------8--5--4-----|--4--4--4---------------|
--2--2--2--4----7----9--|-----------------------|--2--2--2--4----7----9--|
-----------2----5----7--|-----------------------|-----------2----5----7--|
   
--------------------------|--------------|------------------------|
--------------------------|--------------|------------------------|
-----4--------6-----------|--4-----------|------------------------|
--------8--0-----5--4--0--|-----8--5--4--|--4--4--4---------------|
--------------------------|--------------|--2--2--2--4----7----9--|
--------------------------|--------------|-----------2----5----7--|

-----------------------|------------------------|-------------------------|
-----------------------|------------------------|-------------------------|
--------4--------------|------------------------|-------4--------6--------|
-----------8--5--4-----|--4--4--4---------------|----------8--0-----5--4--|
-----------------------|--2--2--2--4----7----9--|-------------------------|
-----------------------|-----------2----5----7--|-------------------------|
   
-----------------|--------------------------|
-----------------|--------------------------|
-----4-----------|--------------------------|
--0-----8--5--4--|--------------------------|
-----------------|--6--6--6--6--6--6--6--6--|
-----------------|--4--4--4--4--4--4--4--4--|

--------------------------------------------------|--------------------------|
--------------------------------------------------|--------------------------|
--------------------------------------------------|--------------------------|
--------------------------------------------------|--------------------------|
--3--3--3--3--3--3--3--3--3--3--3--3--3--3--3--3--|--------------------------|
--1--1--1--1--1--1--1--1--1--1--1--1--1--1--1--1--|--------------------------|
pm----------------------------------------------


    
--6--6-----6--7--6-----7--|-----6-----7--7-----7--7--|
--8--8-----8--9--8-----9--|-----8-----9--9-----9--9--|
--------------------------|--------------------------|
--------------------------|--------------------------|
--------------------------|--------------------------|
--------------------------|--------------------------|

----------------|--------------------------|
----------------|--------------------------|
----------------|--------------------------|
--3-------------|--3-------------3---------|
--1------2------|--1------2------1----2----|
---------0------|---------0-----------0----|


--6--6-----6--6-----6--7--|--6-----7-----6-----7--7--|----------------|
--8--8-----8--8-----8--9--|--8-----9-----8-----9--9--|----------------|
--------------------------|--------------------------|----------------|
--------------------------|--------------------------|--3-------------|
--------------------------|--------------------------|--1------2------|
--------------------------|--------------------------|---------0------|

  
--6--6-----6--7--6-----7--|-----6-----7--7-----7--7--|
--8--8-----8--9--8-----9--|-----8-----9--9-----9--9--|
--------------------------|--------------------------|
--------------------------|--------------------------|
--------------------------|--------------------------|
--------------------------|--------------------------|
 
----------------|--------------------------|
----------------|--------------------------|
----------------|--------------------------|
--3-------------|--3-------------3---------|
--1------2------|--1------2------1----2----|
---------0------|---------0-----------0----|


--6--7--6-----6--6-----6--|--7--6-----7-----6-----7--7--|
--8--9--8-----8--8-----8--|--9--8-----9-----8-----9--9--|
--------------------------|-----------------------------|
--------------------------|-----------------------------|
--------------------------|-----------------------------|
--------------------------|-----------------------------|

----------------|--------------------------|
----------------|--------------------------|
----------------|--------------------------|
--3-------------|--3-------------3---------|
--1------2------|--1------2------1----2----|
---------0------|---------0-----------0----|

   
-----------------------|-----------------------|
-----------------------|-----------------------|
-----------------------|-----------------------|
--3-------------3------|-----------------------|
--1------2------1------|--2--2--2--2--2--2--2--|
---------0-------------|--0--0--0--0--0--0--0--|
                        pm-------------------
 

----------------|--------------------------|
----------------|--------------------------|
----------------|--------------------------|
--3-------------|--3-------------3---------|
--1------2------|--1------2------1----2----|
---------0------|---------0-----------0----|

----------------|--------------------------|
----------------|--------------------------|
--3-------------|--------------------------|
----------------|--3-------------3---------|
--1------2------|--1------2------1----2----|
---------0------|---------0-----------0----|


    
--------------------------|--------------------------------|
--5-----------5-----------|-----5--------------------5-----|
--3-----------3-----------|-----3--------------------3-----|
--------------------------|--------------------------------|
--------------------------|--------------------------------|
-----0--0--------0--0--0--|--------0--0-----------------0--|
pm   ----        -------           ----                 -


------------------|----------------------------|
------------------|----------------------------|
------------------|----------------------------|
--3--3--3---------|--3--3--3---------3---------|
--1--1--1--2------|--1--1--1--2------1--2------|
-----------0------|-----------0---------0------|

------------------|----------------------------|
------------------|----------------------------|
------------------|----------------------------|
--3--3--3---------|--3--3--3---------3---------|
--1--1--1--2------|--1--1--1--2------1--2------|
-----------0------|-----------0---------0------|



--------------------------|------------------------|
--5-----------5-----------|-----5---------------5--|
--3-----------3-----------|-----3---------------3--|
--------------------------|------------------------|
--------------------------|------------------------|
-----0--0--------0--0--0--|--------0--0----0-------|
pm   ----        -------           ----    -

 
--------------------------|--------------------------|--------------------------|
-----5-----------5--------|--------------------------|--------------5--5--------|
-----3-----------3--------|--------------------------|--------------3--3--------|
--------------------------|--------------------------|--------------------------|
--------------------------|--------------------------|--------------------------|
--0-----0--0--------0--0--|--0-----------------------|--------------------------|
pm-     ----        ----------


   
-------------------|-------------------|-------------------|-------------------|
-------------------|-------------------|-------------------|-------------------|
--3--3--3--3-------|--3--3--3--3-------|-------------------|-------------------|
--2--2--2--2-------|--2--2--2--2-------|-------------------|-------------------|
--1--1--1--1-------|--1--1--1--1-------|--2--2-------------|--2--2-------------|
-------------------|-------------------|--0--0-------------|--0--0-------------|
                                        pm----                ----

-------------------|-------------------|-------------------|-------------------|
-------------------|-------------------|-------------------|-------------------|
--3--3--3--3-------|--3--3--3--3-------|--3--3--3--3-------|-------------------|
--2--2--2--2-------|--2--2--2--2-------|--2--2--2--2-------|-------------------|
--1--1--1--1-------|--1--1--1--1-------|--1--1--1--1-------|--2--2-------------|
-------------------|-------------------|-------------------|--0--0-------------|
                                                            pm----

-------------------|-------------------|-------------------|-------------------|
-------------------|-------------------|-------------------|-------------------|
--3--3--3--3-------|--3--3--3----------|-------------------|-------------------|
--2--2--2--2-------|--2--2--2----------|-------------------|-------------------|
--1--1--1--1-------|--1--1--1----------|--2--2-------------|--2--2-------------|
-------------------|-------------------|--0--0-------------|--0--0-------------|
                                        pm----                ----
  
-------------------|-------------------|-------------------------|
-------------------|-------------------|-------------------------|
--3--3--3--3-------|--3--3--3--3-------|--3--3--3--3-------------|
--2--2--2--2-------|--2--2--2--2-------|--2--2--2--2-------------|
--1--1--1--1-------|--1--1--1--1-------|--1--1--1--1-------2--2--|
-------------------|-------------------|-------------------0--0--|
                                                         pm----


----------------|--------------------------|
----------------|--------------------------|
--3-------------|--3-------------3---------|
--2-------------|--2-------------2---------|
--1------2------|--1------2------1----2----|
---------0------|---------0-----------0----|

----------------|--------------------------|
----------------|--------------------------|
--3-------------|--3-------------3---------|
----------------|--2-------------2---------|
--1------2------|--1------2------1----2----|
---------0------|---------0-----------0----|



Gtr I
--------------------------|--------------------------|
--------5--------5--------|--5--------5-----5-----5--|
--------3--------3--------|--3--------3-----3-----3--|
--------------------------|--------------------------|
--------------------------|--------------------------|
--0--0-----0--0-----0--0--|-----0--0-----0-----0-----|
pm----     ----     ----        ----     -     -

Gtr II
------------------|----------------------------|
------------------|----------------------------|
------------------|----------------------------|
--3--3--3---------|--3--3--3---------3---------|
--1--1--1--2------|--1--1--1--2------1--2------|
-----------0------|-----------0---------0------|


Gtr I
--------------------------|--------------------------|
--------5--------5--------|--5--------5-----5--------|
--------3--------3--------|--3--------3-----3--------|
--------------------------|--------------------------|
--------------------------|--------------------------|
--0--0-----0--0-----0--0--|-----0--0-----0-----0--0--|
pm----     ----     ----        ----     -     ----

Gtr II
------------------|----------------------------|
------------------|----------------------------|
------------------|----------------------------|
--3--3--3---------|--3--3--3---------3---------|
--1--1--1--2------|--1--1--1--2------1--2------|
-----------0------|-----------0---------0------|



Gtr I
-----------------------|-----------------------|
-----------------------|---------3--3--3--3----|
--3--3---3--3--3--3----|--3--3-----------------|
--2--2-----------------|--2--2-----------------|
--1--1-----------------|--1--1-----------------|
-----------------------|-----------------------|
N.H     -----------              -----------

Gtr II
-----------------------|-----------------------|
-----------------------|-----------------------|
--3--3-----------------|--3--3-----------------|
--2--2-----------------|--2--2-----------------|
--1--1-----------------|--1--1-----------------|
-----------------------|-----------------------|


Gtr I
---------------------|-----------------|
---------------------|-----------------|
--3--3---------------|-----------------|
--2--2---------------|-----------------|
--1--1---------------|--2--2-----------|
---------------------|--0--0-----------|

Gtr II
---------3-----------|-----------------|
------------3--------|-----------------|
--3--3---------3-----|-----------------|
--2--2------------3--|-----------------|
--1--1---------------|--2--2-----------|
---------------------|--0--0-----------|
N.H      ----------


Добавлено: 05.06.2012
Другие материалы по этой песне:

Страница создана 19.05.2012
http://primanota.ru/dillinger-escape-plan/lurch-chords.htm
Привет, Гость.
Предлагаем пройти революционный курс по гитаре.
Подарок от PrimaNota.Ru, забирай!