PrimaNota.ru - самый крупный в мире бесплатный архив песенных текстов, аккордов, табулатур и нот


Dillinger Escape Plan - Dead As History - таба, видео

Регистрация Запомнить меня
Войти через:  Facebook Google Twitter Vk Yandex Mail.ru

Dillinger Escape Plan - Dead As History - таба, видео

Печатать
Просмотров: 256
DILLINGER ESCAPE PLAN - DEAD AS HISTORY (Ire Works)

STANDARD TUNING - EADGBe


--------------------------|--------------------------|
--------------------------|--------------------------|
--------------------------|--------------------------|
--------------------------|--------------------------|
--2--2--2--2--2--2--2--2--|--2--2--2--2--2--2--2--2--|
--0--0--0--0--0--0--0--0--|--0--0--0--0--0--0--0--0--|
pm-------------------------------------------------



--------------------------|--------------------------|
--------------------------|--------------------------|
--------------------------|--------------------------|
--------------------------|-----4--4--4--5--5--5--5--|
--2--2--2--2--2--2--2--2--|--2--2--2--2--3--3--3--3--|
--0--0--0--0--0--0--0--0--|--0-----------------------|
pm-------------------------------------------------

--------------------------|--------------------------|
--------------------------|--------------------------|
--------------------------|--------------------------|
--------------------------|--------------------------|
--3--3--3--3--3--3--3--3--|--3--3--3--3--3--3--3--3--|
--1--1--1--1--1--1--1--1--|--1--1--1--1--1--1--1--1--|
pm-------------------------------------------------


--------------------------|--------------------------|
--------------------------|--------------------------|
--------------------------|--------------------------|
--------------------------|-----4--4--4--5--5--5--5--|
--2--2--2--2--2--2--2--2--|--2--2--2--2--3--3--3--3--|
--0--0--0--0--0--0--0--0--|--0-----------------------|
pm-------------------------------------------------

--------------------------|--------------------------|
--------------------------|--------------------------|
--------------------------|--------------------------|
--------------------------|--------------------------|
--3--3--3--3--3--3--3--3--|--3--3--3--3--3--3--3--3--|
--1--1--1--1--1--1--1--1--|--1--1--1--1--1--1--1--1--|
pm-------------------------------------------------


--------------------------|--------------------------|
--------------------------|--------------------------|
--------------------------|--------------------------|
--------------------------|-----4--4--4--5--5--5--5--|
--2--2--2--2--2--2--2--2--|--2--2--2--2--3--3--3--3--|
--0--0--0--0--0--0--0--0--|--0-----------------------|
pm------------------------------------------------- 
           
--------------------------|--------------------------|
--------------------------|--------------------------|
--------------------------|--------------------------|
--------------------------|--------------------------|
--3--3--3--3--3--3--3--3--|--3--3--3--3--3--3--3--3--|
--1--1--1--1--1--1--1--1--|--1--1--1--1--1--1--1--1--|
pm-------------------------------------------------



-------------------|-------------------|
-------------------|-------------------|
-------------------|-------------------|
-------------------|-------------------|
--2----------------|-------------------|
--0----------------|-------------------|



--------------------------|-----------------------------|
--------------------------|-----------------------------|
--------------------------|-----------------------------|
--------------------------|-----------------------------|
--3--3--3--3--3--3--3--3--|--3--3--3--3--6--6--6--6-----|
--1--1--1--1--1--1--1--1--|--1--1--1--1--4--4--4--4-----|
pm-------------------------------------



--------------------------|--------------------------|
--------------------------|--------------------------|
--------------------------|--------------------------|
--------------------------|--------------------------|
--2--2--2--2--------2--2--|--2--2--------2-----2-----|
--0--0--0--0--------0--0--|--0--0--------0-----0-----|
pm----------------------------------------------

--------------------------|--------------------------|
--------------------------|--------------------------|
--------------------------|--------------------------|
--------------------------|--------------------------|
--2--2--2--2--------2--2--|--2--2--------2-----2-----|
--0--0--0--0--------0--0--|--0--0--------0-----0-----|
pm----------------------------------------------

--------------------------|--------------------------|
--------------------------|--------------------------|
--------------------------|--------------------------|
--------------------------|--------------------------|
--2--2--2--2--------2--2--|--2--2--------2-----2-----|
--0--0--0--0--------0--0--|--0--0--------0-----0-----|
pm----------------------------------------------
 
--------------------------|--------------------------|
--------------------------|--------------------------|
--------------------------|--------------------------|
--------------------------|--------------------------|
--2--2--2--2--------2--2--|--2--2-----6--5--3--2-----|
--0--0--0--0--------0--0--|--0--0-----4--3--1--0-----|
pm----------------------------------------------



Gtr I
-------------------------------|----------------------------------|
-------------------------------|----------------------------------|
--9--9--9--11--11--11--11--12--|--12--12--12--16--16--16--16--17--|
-------------------------------|----------------------------------|
--7--7--7---9---9---9---9--10--|--10--10--10--14--14--14--14--15--|
-------------------------------|----------------------------------|

Gtr II
--------------------------|--------------------------|
--------------------------|--------------------------|
--------------------------|--------------------------|
--------------------------|--------------------------|
--2--2--2--2--------2--2--|--2--2--------2-----2-----|
--0--0--0--0--------0--0--|--0--0--------0-----0-----|


Gtr I
----------------------------------|----------------------------------|
----------------------------------|----------------------------------|
--17--17--17--17--17--17--17--17--|--17--17--17--17--17--17--17--17--|
----------------------------------|----------------------------------|
--15--15--15--15--15--15--15--15--|--15--15--15--15--15--15--15--15--|
----------------------------------|----------------------------------|

Gtr II
--------------------------|--------------------------|
--------------------------|--------------------------|
--------------------------|--------------------------|
--5--5--5--5--------5--5--|--5--5--------5-----5-----|
--3--3--3--3--------3--3--|--3--3--------3-----3-----|
--------------------------|--------------------------|


Gtr I
--------------------------|---------------------------|
--------------------------|---------------------------|
--3--3--3--7--7--7--7--9--|--9--9--9--10--10--10--10--|
--------------------------|---------------------------|
--1--1--1--5--5--5--5--7--|--7--7--7---8---8---8---8--|
--------------------------|---------------------------|

Gtr II
--------------------------|-----------------------|
--------------------------|-----------------------|
--------------------------|-----------------------|
--------------------------|-----------------------|
--3--3--3--3--------3--3--|--3--3--------3-----3--|
--1--1--1--1--------1--1--|--1--1--------1-----1--|


Gtr I
----------------------------------|------------------------------|
----------------------------------|------------------------------|
--11--11--11--11--12--12--12--12--|--8--8--8--8--15--15--15--15--|
----------------------------------|------------------------------|
---9---9---9---9--10--10--10--10--|--6--6--6--6--13--13--13--13--|
----------------------------------|------------------------------|

Gtr II
--------------------------|--------------------------|
--------------------------|--------------------------|
--------------------------|--------------------------|
--4--4--4--4--5--5--5--5--|--3--3--3--3--3--3--3--3--|
--2--2--2--2--3--3--3--3--|--1--1--1--1--1--1--1--1--|
--------------------------|--------------------------|
pm-------------------------------------------------



--------------------------|--------------------------|
--------------------------|--------------------------|
--------------------------|--------------------------|
--------------------------|-----4--4--4--5--5--5--5--|
--2--2--2--2--2--2--2--2--|--2--2--2--2--3--3--3--3--|
--0--0--0--0--0--0--0--0--|--0-----------------------|
pm-------------------------------------------------

--------------------------|--------------------------|
--------------------------|--------------------------|
--------------------------|--------------------------|
--------------------------|--------------------------|
--3--3--3--3--3--3--3--3--|--3--3--3--3--3--3--3--3--|
--1--1--1--1--1--1--1--1--|--1--1--1--1--1--1--1--1--|
pm-------------------------------------------------


--------------------------|--------------------------|
--------------------------|--------------------------|
--------------------------|--------------------------|
--------------------------|-----4--4--4--5--5--5--5--|
--2--2--2--2--2--2--2--2--|--2--2--2--2--3--3--3--3--|
--0--0--0--0--0--0--0--0--|--0-----------------------|
pm-------------------------------------------------

--------------------------|--------------------------|
--------------------------|--------------------------|
--------------------------|--------------------------|
--------------------------|--------------------------|
--3--3--3--3--3--3--3--3--|--3--3--3--3--3--3--3--3--|
--1--1--1--1--1--1--1--1--|--1--1--1--1--1--1--1--1--|
pm-------------------------------------------------

 
--------------------------|--------------------------|
--------------------------|--------------------------|
--------------------------|--------------------------|
--------------------------|-----4--4--4--5--5--5--5--|
--2--2--2--2--2--2--2--2--|--2--2--2--2--3--3--3--3--|
--0--0--0--0--0--0--0--0--|--0-----------------------|
pm------------------------------------------------- 
           
--------------------------|--------------------------|
--------------------------|--------------------------|
--------------------------|--------------------------|
--------------------------|--------------------------|
--3--3--3--3--3--3--3--3--|--3--3--3--3--3--3--3--3--|
--1--1--1--1--1--1--1--1--|--1--1--1--1--1--1--1--1--|
pm-------------------------------------------------



-------------------|-------------------|
-------------------|-------------------|
-------------------|-------------------|
-------------------|-------------------|
--2----------------|-------------------|
--0----------------|-------------------|



--------------------------|-----------------------------|
--------------------------|-----------------------------|
--------------------------|-----------------------------|
--------------------------|-----------------------------|
--3--3--3--3--3--3--3--3--|--3--3--3--3--6--6--6--6-----|
--1--1--1--1--1--1--1--1--|--1--1--1--1--4--4--4--4-----|
pm-------------------------------------



--------------------------|--------------------------|
--------------------------|--------------------------|
--------------------------|--------------------------|
--------------------------|--------------------------|
--2--2--2--2--------2--2--|--2--2--------2-----2-----|
--0--0--0--0--------0--0--|--0--0--------0-----0-----|
pm----------------------------------------------

--------------------------|--------------------------|
--------------------------|--------------------------|
--------------------------|--------------------------|
--------------------------|--------------------------|
--2--2--2--2--------2--2--|--2--2--------2-----2-----|
--0--0--0--0--------0--0--|--0--0--------0-----0-----|
pm----------------------------------------------

--------------------------|--------------------------|
--------------------------|--------------------------|
--------------------------|--------------------------|
--------------------------|--------------------------|
--2--2--2--2--------2--2--|--2--2--------2-----2-----|
--0--0--0--0--------0--0--|--0--0--------0-----0-----|
pm----------------------------------------------
 
--------------------------|--------------------------|
--------------------------|--------------------------|
--------------------------|--------------------------|
--------------------------|--------------------------|
--2--2--2--2--------2--2--|--2--2-----6--5--3--2-----|
--0--0--0--0--------0--0--|--0--0-----4--3--1--0-----|
pm----------------------------------------------



Gtr I
-------------------------------|----------------------------------|
-------------------------------|----------------------------------|
--9--9--9--11--11--11--11--12--|--12--12--12--16--16--16--16--17--|
-------------------------------|----------------------------------|
--7--7--7---9---9---9---9--10--|--10--10--10--14--14--14--14--15--|
-------------------------------|----------------------------------|

Gtr II
--------------------------|--------------------------|
--------------------------|--------------------------|
--------------------------|--------------------------|
--------------------------|--------------------------|
--2--2--2--2--------2--2--|--2--2--------2-----2-----|
--0--0--0--0--------0--0--|--0--0--------0-----0-----|


Gtr I
----------------------------------|----------------------------------|
----------------------------------|----------------------------------|
--17--17--17--17--17--17--17--17--|--17--17--17--17--17--17--17--17--|
----------------------------------|----------------------------------|
--15--15--15--15--15--15--15--15--|--15--15--15--15--15--15--15--15--|
----------------------------------|----------------------------------|

Gtr II
--------------------------|--------------------------|
--------------------------|--------------------------|
--------------------------|--------------------------|
--5--5--5--5--------5--5--|--5--5--------5-----5-----|
--3--3--3--3--------3--3--|--3--3--------3-----3-----|
--------------------------|--------------------------|


Gtr I
--------------------------|---------------------------|
--------------------------|---------------------------|
--3--3--3--7--7--7--7--9--|--9--9--9--10--10--10--10--|
--------------------------|---------------------------|
--1--1--1--5--5--5--5--7--|--7--7--7---8---8---8---8--|
--------------------------|---------------------------|

Gtr II
--------------------------|-----------------------|
--------------------------|-----------------------|
--------------------------|-----------------------|
--------------------------|-----------------------|
--3--3--3--3--------3--3--|--3--3--------3-----3--|
--1--1--1--1--------1--1--|--1--1--------1-----1--|


Gtr I
----------------------------------|------------------------------|
----------------------------------|------------------------------|
--11--11--11--11--12--12--12--12--|--8--8--8--8--15--15--15--15--|
----------------------------------|------------------------------|
---9---9---9---9--10--10--10--10--|--6--6--6--6--13--13--13--13--|
----------------------------------|------------------------------|

Gtr II
--------------------------|--------------------------|
--------------------------|--------------------------|
--------------------------|--------------------------|
--4--4--4--4--5--5--5--5--|--3--3--3--3--3--3--3--3--|
--2--2--2--2--3--3--3--3--|--1--1--1--1--1--1--1--1--|
--------------------------|--------------------------|
pm-------------------------------------------------



Gtr I
-------------------------------|----------------------------------|
-------------------------------|----------------------------------|
--9--9--9--11--11--11--11--12--|--12--12--12--16--16--16--16--17--|
-------------------------------|----------------------------------|
--7--7--7---9---9---9---9--10--|--10--10--10--14--14--14--14--15--|
-------------------------------|----------------------------------|

Gtr II
--------------------------|--------------------------|
--------------------------|--------------------------|
--------------------------|--------------------------|
--------------------------|--------------------------|
--2--2--2--2--------2--2--|--2--2--------2-----2-----|
--0--0--0--0--------0--0--|--0--0--------0-----0-----|


Gtr I
----------------------------------|----------------------------------|
----------------------------------|----------------------------------|
--17--17--17--17--17--17--17--17--|--17--17--17--17--17--17--17--17--|
----------------------------------|----------------------------------|
--15--15--15--15--15--15--15--15--|--15--15--15--15--15--15--15--15--|
----------------------------------|----------------------------------|

Gtr II
--------------------------|--------------------------|
--------------------------|--------------------------|
--------------------------|--------------------------|
--5--5--5--5--------5--5--|--5--5--------5-----5-----|
--3--3--3--3--------3--3--|--3--3--------3-----3-----|
--------------------------|--------------------------|


Gtr I
--------------------------|---------------------------|
--------------------------|---------------------------|
--3--3--3--7--7--7--7--9--|--9--9--9--10--10--10--10--|
--------------------------|---------------------------|
--1--1--1--5--5--5--5--7--|--7--7--7---8---8---8---8--|
--------------------------|---------------------------|

Gtr II
--------------------------|-----------------------|
--------------------------|-----------------------|
--------------------------|-----------------------|
--------------------------|-----------------------|
--3--3--3--3--------3--3--|--3--3--------3-----3--|
--1--1--1--1--------1--1--|--1--1--------1-----1--|


Gtr I
----------------------------------|------------------------------|
----------------------------------|------------------------------|
--11--11--11--11--12--12--12--12--|--8--8--8--8--15--15--15--15--|
----------------------------------|------------------------------|
---9---9---9---9--10--10--10--10--|--6--6--6--6--13--13--13--13--|
----------------------------------|------------------------------|

Gtr II
--------------------------|--------------------------|
--------------------------|--------------------------|
--------------------------|--------------------------|
--4--4--4--4--5--5--5--5--|--3--3--3--3--3--3--3--3--|
--2--2--2--2--3--3--3--3--|--1--1--1--1--1--1--1--1--|
--------------------------|--------------------------|
pm-------------------------------------------------



--------------------------|--------------------------|
--------------------------|--------------------------|
--------------------------|--------------------------|
--------------------------|--------------------------|
--2--2--2--2--------2--2--|--2--2--------2-----2-----|
--0--0--0--0--------0--0--|--0--0--------0-----0-----|
pm----------------------------------------------

--------------------------|--------------------------|
--------------------------|--------------------------|
--------------------------|--------------------------|
--------------------------|--------------------------|
--2--2--2--2--------2--2--|--2--2--------2-----2-----|
--0--0--0--0--------0--0--|--0--0--------0-----0-----|
pm----------------------------------------------

--------------------------|--------------------------|
--------------------------|--------------------------|
--------------------------|--------------------------|
--------------------------|--------------------------|
--2--2--2--2--------2--2--|--2--2--------2-----2-----|
--0--0--0--0--------0--0--|--0--0--------0-----0-----|
pm----------------------------------------------

--------------------------|--------------------------|
--------------------------|--------------------------|
--------------------------|--------------------------|
--------------------------|--------------------------|
--2--2--2--2--------2--2--|--2--2--------2-----2-----|
--0--0--0--0--------0--0--|--0--0--------0-----0-----|
pm----------------------------------------------

--------------------------|--------------------------|
--------------------------|--------------------------|
--------------------------|--------------------------|
--------------------------|--------------------------|
--2--2--2--2--------2--2--|--2--2--------2-----2-----|
--0--0--0--0--------0--0--|--0--0--------0-----0-----|
pm----------------------------------------------

--------------------------|--------------------------|
--------------------------|--------------------------|
--------------------------|--------------------------|
--------------------------|--------------------------|
--2--2--2--2--------2--2--|--2--2--------2-----2-----|
--0--0--0--0--------0--0--|--0--0--------0-----0-----|
pm----------------------------------------------

--------------------------|--------------------------|
--------------------------|--------------------------|
--------------------------|--------------------------|
--------------------------|--------------------------|
--2--2--2--2--------2--2--|--2--2--------2-----2-----|
--0--0--0--0--------0--0--|--0--0--------0-----0-----|
pm----------------------------------------------

--------------------------|--------------------------|
--------------------------|--------------------------|
--------------------------|--------------------------|
--------------------------|--------------------------|
--2--2--2--2--------2--2--|--2--2--------2-----2-----|
--0--0--0--0--------0--0--|--0--0--------0-----0-----|
pm----------------------------------------------

--------------------------|--------------------------|
--------------------------|--------------------------|
--------------------------|--------------------------|
--------------------------|--------------------------|
--2--2--2--2--------2--2--|--2--2--------2-----2-----|
--0--0--0--0--------0--0--|--0--0--------0-----0-----|
pm----------------------------------------------

--------------------------|--------------------------|
--------------------------|--------------------------|
--------------------------|--------------------------|
--------------------------|--------------------------|
--2--2--2--2--------2--2--|--2--2--------2-----2-----|
--0--0--0--0--------0--0--|--0--0--------0-----0-----|
pm----------------------------------------------

--------------------------|--------------------------|
--------------------------|--------------------------|
--------------------------|--------------------------|
--------------------------|--------------------------|
--2--2--2--2--------2--2--|--2--2--------2-----2-----|
--0--0--0--0--------0--0--|--0--0--------0-----0-----|
pm----------------------------------------------

--------------------------|--------------------------|
--------------------------|--------------------------|
--------------------------|--------------------------|
--------------------------|--------------------------|
--2--2--2--2--------2--2--|--2--2--------2-----2-----|
--0--0--0--0--------0--0--|--0--0--------0-----0-----|
pm----------------------------------------------

--------------------------|--------------------------|
-----------0-----------0--|-----------0--------0-----|
-----------0-----------0--|-----------0--------0-----|
--------------------------|--------------------------|
--2--2--2-----2--2--2-----|--2--2--2-----2--2--------|
--0--0--0-----0--0--0-----|--0--0--0-----0--0--------|
pm-------     -------        -------     ----

--------------------------|--------------------------|
--------------------------|--------------------------|
--------------------------|--------------------------|
--------------------------|--------------------------|
--2--2--2--2--------2--2--|--2--2--------2-----2-----|
--0--0--0--0--------0--0--|--0--0--------0-----0-----|
pm----------------------------------------------

--------------------------|--------------------------|
--------------------------|--------------------------|
--------------------------|--------------------------|
--------------------------|--------------------------|
--2--2--2--2--------2--2--|--2--2--------2-----2-----|
--0--0--0--0--------0--0--|--0--0--------0-----0-----|
pm----------------------------------------------

--------------------------|--------------------------|
--------------------------|--------------------------|
--------------------------|--------------------------|
--------------------------|--------------------------|
--2--2--2--2--------2--2--|--2--2--------2-----2-----|
--0--0--0--0--------0--0--|--0--0--------0-----0-----|
pm----------------------------------------------

--------------------------|--------------------------|
--------------------------|--------------------------|
--------------------------|--------------------------|
--------------------------|--------------------------|
--2--2--2--2--------2--2--|--2--2--------2-----2-----|
--0--0--0--0--------0--0--|--0--0--------0-----0-----|
pm----------------------------------------------

--------------------------|--------------------------|
--------------------------|--------------------------|
--------------------------|--------------------------|
--------------------------|--------------------------|
--2--2--2--2--------2--2--|--2--2--------2-----2-----|
--0--0--0--0--------0--0--|--0--0--------0-----0-----|
pm----------------------------------------------

--------------------------|--------------------------|
--------------------------|--------------------------|
--------------------------|--------------------------|
--------------------------|--------------------------|
--2--2--2--2--------2--2--|--2--2--------2-----2-----|
--0--0--0--0--------0--0--|--0--0--------0-----0-----|
pm----------------------------------------------

--------------------------|--------------------------|
--------------------------|--------------------------|
--------------------------|--------------------------|
--------------------------|--------------------------|
--2--2--2--2--------2--2--|--2--2--------2-----2-----|
--0--0--0--0--------0--0--|--0--0--------0-----0-----|
pm----------------------------------------------

--------------------------|--------------------------|
--------------------------|--------------------------|
--------------------------|--------------------------|
--------------------------|--------------------------|
--2--2--2--2--------2--2--|--2--2--------2-----2-----|
--0--0--0--0--------0--0--|--0--0--------0-----0-----|
pm----------------------------------------------

--------------------------|--------------------------|
--------------------------|--------------------------|
--------------------------|--------------------------|
--------------------------|--------------------------|
--2--2--2--2--------2--2--|--2--2--------2-----2-----|
--0--0--0--0--------0--0--|--0--0--------0-----0-----|
pm----------------------------------------------

--------------------------|--------------------------|
--------------------------|--------------------------|
--------------------------|--------------------------|
--------------------------|--------------------------|
--2--2--2--2--------2--2--|--2--2--------2-----2-----|
--0--0--0--0--------0--0--|--0--0--------0-----0-----|
pm----------------------------------------------

--------------------------|--------------------------|
--------------------------|--------------------------|
--------------------------|--------------------------|
--------------------------|--------------------------|
--2--2--2--2--------2--2--|--2--2-----6--5--3--2-----|
--0--0--0--0--------0--0--|--0--0-----4--3--1--0-----|
pm----------------------------------------------

--------------------------|--------------------------|
--------------------------|--------------------------|
--------------------------|--------------------------|
--------------------------|--------------------------|
--2--2--2--2--------2--2--|--2--2--------2-----2-----|
--0--0--0--0--------0--0--|--0--0--------0-----0-----|
pm----------------------------------------------

Добавлено: 01.05.2012
Другие материалы по этой песне:

Страница создана 01.05.2012
http://primanota.ru/dillinger-escape-plan/dead-as-history-chords.htm
Привет, Гость.
Предлагаем пройти революционный курс по гитаре.
Подарок от PrimaNota.Ru, забирай!