PrimaNota.ru - самый крупный в мире бесплатный архив песенных текстов, аккордов, табулатур и нот


Dillinger Escape Plan - Crossburner - таба, видео

Регистрация Запомнить меня
Войти через:  Facebook Google Twitter Vk Yandex Mail.ru

Dillinger Escape Plan - Crossburner - таба, видео

Печатать
Просмотров: 151
Уроки эстрадного вокала в Санкт-Петербурге
Авторы музыки: Ben Weinman
Авторы текста: Greg Puciato
Crossburner - The Dillinger Escape Plan

tuning : Drop D

( | = new meter, * = palm muting)

main riff

-------------------------|---------------------------|
--------------14-14-14-14|---------------14-14-14-14-|
--------------12-12-12-12|---------------12-12-12-12-|
-0--0----0----11-11-11-11|-0-0-0----0----11-11-11-11-|
-0--0----0----10-10-10-10|-0-0-0----0----10-10-10-10-|
-0--0----0---------------|-0-0-0----0----------------| x4

verse only bass

end on (starts on the 2nd eighth)

-11-11-11-11-11-11-11--|
-15-15-15-15-15-15-15--|
-13-13-13-13-13-13-13--|
-----------------------|
-----------------------|
-----------------------|

chorus is main riff and the second guitar plays

-------------------------------------|----------------------------------------|
-------------------------------------|----------------------------------------|
-------------------------------------|----------------------------------------|
-11~--11~--11-12-0-11~--11~---11-12-0|-11~--11~--11-12-0-11~---11~-11-12-13~--|
-------------------------------------|----------------------------------------|
-------------------------------------|----------------------------------------|


-------------------------------------|----------------------------------------|
-------------------------------------|----------------------------------------|
-------------------------------------|----------------------------------------|
-11~--11~--11-12-0-11~--11~---11-12-0|-11~--11~--11-12-0-11~---11~------------|
-------------------------------------|----------------------------------------|
-------------------------------------|------------------------------11-10-9-8-|

then

--------------------------------|---------------------------------|
--------------------------------|---------------------------------|
--------------------------------|---------------------------------|
-3-3-3-3-3-3-3-3-3-3-3-3-3-3-3-3|-1-1-1-1-1-1-1-1-4-4-4-4-4-4-4-4-|
-3-3-3-3-3-3-3-3-3-3-3-3-3-3-3-3|-1-1-1-1-1-1-1-1-4-4-4-4-4-4-4-4-|
-3-3-3-3-3-3-3-3-3-3-3-3-3-3-3-3|-1-1-1-1-1-1-1-1-4-4-4-4-4-4-4-4-|
 * * * * * * * * * * * * * * * * * * * * * * * * * * * * * * * *

verse

chorus


--------------------------------|---------------------------------|
--------------------------------|---------------------------------|
--------------------------------|---------------------------------|
-3-3-3-3-3-3-3-3-3-3-3-3-3-3-3-3|-1-1-1-1-1-1-1-1-4-4-4-4-4-4-4-4-|
-3-3-3-3-3-3-3-3-3-3-3-3-3-3-3-3|-1-1-1-1-1-1-1-1-4-4-4-4-4-4-4-4-|
-3-3-3-3-3-3-3-3-3-3-3-3-3-3-3-3|-1-1-1-1-1-1-1-1-4-4-4-4-4-4-4-4-|
 * * * * * * * * * * * * * * * * * * * * * * * * * * * * * * * *

bridge

------------------------------------------|--------------------|
------------------------------------------|--------------------|
--------------------------------12--------|--------------------|
-12-0-0-12-12-0-0-12-12-13-11-0----------0|-12-0-0-12-0-12-0-0-|
-----------------------------------11-10--|--------------------|
------------------------------------------|--------------------|


------------------------------------------|------------------------------------------|
------------------------------------------|------------------------------------------|
--------------------------------11--------|--------------------------------12--------|
-12-0-0-12-12-0-0-12-12-13-11-0--------11-|-12-0-0-12-12-0-0-12-12-13-11-0----------0|
-----------------------------------8-9----|-----------------------------------11-10--|
------------------------------------------|------------------------------------------|


-------------------|---------------------------------------------|
-------------------|---------------------------------------------|
-------------------|------------11-------------------11------10--|
-12-0-0-12-0-12-0-0|-12-13----0-------11-12-13----------11-12----|
-------------------|-------11-----8-9----------10-11-------------|
-------------------|---------------------------------------------|


-----------------------------|------------------------------------------|
-----------------------------|------------------------------------------|
-----------------------------|--------------------------------12--------|
-5~--6~--8~--9~----11~--12~--|-12-0-0-12-12-0-0-12-12-13-11-0---------0-|
-5~--6~--8~--9~----11~--12~--|-----------------------------------11-10--|
-5~--6~--8~--9~----11~--12~--|------------------------------------------|


-------------------|------------------------------------------|
-------------------|------------------------------------------|
-------------------|--------------------------------11--------|
-12-0-0-12-0-12-0-0|-12-0-0-12-12-0-0-12-12-13-11-0--------11-|
-------------------|-----------------------------------8-9----|
-------------------|------------------------------------------|


-----------------------------|--------(12 times)---------(6 times)-------|
-----------------------------|-------------------------------------------|
-----------------------------|-------xxxxxxxxxxxx--------xxxxxx----------|
-5~--6~--8~--9~----11~--12~--|-0--0--xxxxxxxxxxxx--0--0--xxxxxx----------|
-5~--6~--8~--9~----11~--12~--|-0--0--xxxxxxxxxxxx--0--0--xxxxxx----------|(x 2)
-5~--6~--8~--9~----11~--12~--|-0--0----------------0--0------------------|


-------------------|-------------|-------------------|--------------|---|
-------9---9---9-8-|-------9---9-|-------9---9---9-8-|-------9---12-|---|
-------x---x---x-x-|-------x---x-|-------x---x---x-x-|-------x---x--|---|
-0--0--8-0-8-0-8-7-|-0--0--8-0-8-|-0--0--8-0-8-0-8-7-|-0--0--8-0-11-|---|
-0--0----0---0-----|-0--0----0---|-0--0----0---0-----|-0--0----0----|---|
-0--0----0---0-----|-0--0----0---|-0--0----0---0-----|-0--0----0----|---|


------------------------------------------------------------------------|
------------------------------------------------------------------------|
------------------------------------------------------------------------|
-3-3-3-3-3-3-3-3-3-3-3-3-3-3-2-2-1-1-1-1-1-1-1-1-4-4-4-4-4-4-4-4--------|
-3-3-3-3-3-3-3-3-3-3-3-3-3-3-2-2-1-1-1-1-1-1-1-1-4-4-4-4-4-4-4-4--------|
-3-3-3-3-3-3-3-3-3-3-3-3-3-3-2-2-1-1-1-1-1-1-1-1-4-4-4-4-4-4-4-4--------|


--------(12 times------------------------(12 times madness)--------------|
---------madness :P)-------9------9--------------------------------------|
-------xxxxxxxxxxxx--------x------x--------xxxxxxx---------xxx-----------|
-0--0--xxxxxxxxxxxx--0--0--8-0-0--8--0--0--xxxxxxx--0--0---xxx--(34------| times)
-0--0--xxxxxxxxxxxx--0--0----0-0-----0--0--xxxxxxx--0--0---xxx-----------|
-0--0----------------0--0----0-0-----0--0-----------0--0-----------------|


end on main riff
Добавлено: 24.06.2015
Вам также может быть интересно:
Другие материалы по этой песне:
  • Аккорды и текст

Страница создана 24.06.2015
http://primanota.ru/dillinger-escape-plan/crossburner-chords.htm
Привет, Гость.
Предлагаем пройти революционный курс по гитаре.
Подарок от PrimaNota.Ru, забирай!