PrimaNota.ru - самый крупный в мире бесплатный архив песенных текстов, аккордов, табулатур и нот


Dillinger Escape Plan - Clip The Apexaccept Instruction - текст песни, таба, видео

Регистрация Запомнить меня
Войти через:  Facebook Google Twitter Vk Yandex Mail.ru

Dillinger Escape Plan - Clip The Apexaccept Instruction - текст песни, таба, видео

Печатать
Просмотров: 176
DILLINGER ESCAPE PLAN - CLIP THE APEX...ACCEPT INSTRUCTION (Calculating Infinity)

STANDARD TUNING - EADGBe


---------------------------|--------------------------|----------------|
--11-------11-------14-----|--11----11----11----11----|--14-----14-----|
--9--------9--------12-----|--9-----9-----9-----9-----|--12-----12-----|
--8--------8--------11-----|--8-----8-----8-----8-----|--11-----11-----|
---------------------------|--------------------------|----------------|
---------------------------|--------------------------|----------------|

---------------------------|--------------------------|----------------|
--11-------11-------14-----|--11----11----11----11----|--14-----14-----|
--9--------9--------12-----|--9-----9-----9-----9-----|--12-----12-----|
--8--------8--------11-----|--8-----8-----8-----8-----|--11-----11-----|
---------------------------|--------------------------|----------------|
---------------------------|--------------------------|----------------|



-------------|------------------------------|-------------|-------------------|
--11----11---|------------------------------|--11----11---|-------------------|
--9-----9----|----------------------8-9-----|--9-----9----|-------------------|
--8-----8----|--------8-9-10-11---------10--|--8-----8----|--8-9-10-11--------|
-------------|--11-12-----------11----------|-------------|------------11-----|
-------------|------------------------------|-------------|-------------------|
 
-------------|------------------------------|-------------|-------------------|
--11----11---|------------------------------|--11----11---|-------------------|
--9-----9----|----------------------8-9-----|--9-----9----|-------------------|
--8-----8----|--------8-9-10-11---------10--|--8-----8----|--8-9-10-11--------|
-------------|--11-12-----------11----------|-------------|------------11-----|
-------------|------------------------------|-------------|-------------------|

  
-------------|------------------------------|-------------|-------------------|
--11----11---|------------------------------|--11----11---|-------------------|
--9-----9----|----------------------8-9-----|--9-----9----|-------------------|
--8-----8----|--------8-9-10-11---------10--|--8-----8----|--8-9-10-11--------|
-------------|--11-12-----------11----------|-------------|------------11-----|
-------------|------------------------------|-------------|-------------------|



---------------------------|--------------------------|----------------|
--11-------11-------14-----|--11----11----11----11----|--14-----14-----|
--9--------9--------12-----|--9-----9-----9-----9-----|--12-----12-----|
--8--------8--------11-----|--8-----8-----8-----8-----|--11-----11-----|
---------------------------|--------------------------|----------------|
---------------------------|--------------------------|----------------|
 
---------------------------|----------------------|----------------|
--11-------11-------14-----|--11--------11--------|--14-----14-----|
--9--------9--------12-----|--9---------9---------|--12-----12-----|
--8--------8--------11-----|--8---------8---------|--11-----11-----|
---------------------------|----------------------|----------------|
---------------------------|----------------------|----------------|



-------------|--------------------|-------------|--------------|
--11----11---|--------------------|--11----11---|--------------|
--9-----9----|--------------------|--9-----9----|--------------|
--8-----8----|--------------------|--8-----8----|--------------|
-------------|--0--0--1--0--1--0--|-------------|--0--0--1--0--|
-------------|--0--0--1--0--1--0--|-------------|--0--0--1--0--|
             pm-----------------                   ----------
 
-------------|--------------------|-------------|--------------|
--11----11---|--------------------|--11----11---|--------------|
--9-----9----|--------------------|--9-----9----|--------------|
--8-----8----|--------------------|--8-----8----|--------------|
-------------|--0--0--1--0--1--0--|-------------|--0--0--1--0--|
-------------|--0--0--1--0--1--0--|-------------|--0--0--1--0--|
              pm----------------                   ----------



-------------|------------------------------|-------------|-------------------|
--11----11---|------------------------------|--11----11---|-------------------|
--9-----9----|----------------------8-9-----|--9-----9----|-------------------|
--8-----8----|--------8-9-10-11---------10--|--8-----8----|--8-9-10-11--------|
-------------|--11-12-----------11----------|-------------|------------11-----|
-------------|------------------------------|-------------|-------------------|
 
-------------|------------------------------|-------------|-------------------|
--11----11---|------------------------------|--11----11---|-------------------|
--9-----9----|----------------------8-9-----|--9-----9----|-------------------|
--8-----8----|--------8-9-10-11---------10--|--8-----8----|--8-9-10-11--------|
-------------|--11-12-----------11----------|-------------|------------11-----|
-------------|------------------------------|-------------|-------------------|

-------------|-------------------------------------------------|
--11----11---|-------------------------------------------------|
--9-----9----|-------------------------------------------------|
--8-----8----|-----------11--10--------11--------11--------11--|
-------------|-------------------------------------------------|
-------------|--0--0--0----------0--0------0--0------0--0------|
              pm-------          ----      ----      ----



Gtr I
-----------------|--------------------------|-----------------|------------|
-----------------|--------------------------|-----------------|------------|
-----------------|--------------------------|-----------------|------------|
-----------------|--------11----------11----|--------11-------|--11--------|
--5----6----5----|--------------------------|-----------------|------------|
--5----6----5----|--0--0--10----0--0--10----|--0--0--10----0--|--10--------|
                  pm----        ----           ----        -

Gtr II
-----------------|--------------------------|-----------------|------------|
-----------------|--------------------------|-----------------|------------|
-----------------|--------------------------|-----------------|------------|
-----------------|--------------------------|-----------------|------------|
--5----6----5----|--------------------------|-----------------|--6---------|
--5----6----5----|--------------------------|-----------------|--6---------|


Gtr I
-----------------|--------------|--------------|-----------------|
-----------------|--------------|--------------|-----------------|
-----------------|--------------|--------------|-----------------|
--------11-------|--11----11----|--------11----|-----------------|
-----------------|--------------|--------------|--5----6----5----|
--0--0--10----0--|--10----10----|--0--0--10----|--5----6----5----|
pm----        -                    ---- 

Gtr II
-----------------|--------------|--------------|-----------------|
-----------------|--------------|--------------|-----------------|
-----------------|--------------|--------------|-----------------|
-----------------|--------------|--------------|-----------------|
-----------------|--6-----6-----|--------------|--5----6----5----|
-----------------|--6-----6-----|--------------|--5----6----5----|


Gtr I
--------------------------|--------------|--------------------|--------------------|
--------------------------|--------------|--------------------|--------------------|
--------------------------|--------------|--------------------|--------------------|
--------11----------11----|--------11----|--------11----11----|--------11----11----|
--------------------------|--------------|--------------------|--------------------|
--0--0--10----0--0--10----|--0--0--10----|--0--0--10----10----|--0--0--10----10----|
pm----        ----           ----           ----                 ----

Gtr II
--------------------------|--------------|--------------------|--------------------|
--------------------------|--------------|--------------------|--------------------|
--------------------------|--------------|--------------------|--------------------|
--------------------------|--------------|--------------------|--------------------|
--------------------------|--------------|--------6-----6-----|--------------6-----|
--------------------------|--------------|--------6-----6-----|--------------6-----|


Gtr I
--------------------|--------------|------------------|-----------------|
--------------------|--------------|------------------|-----------------|
--------------------|--------------|------------------|-----------------|
--------11----11----|--------11----|--11------11------|-----------------|
--------------------|--------------|------------------|--5----6----5----|
--0--0--10----10----|--0--0--10----|--10------10------|--5----6----5----|
pm----                 ----                  

Gtr II
--------------------|--------------|------------------|-----------------|
--------------------|--------------|------------------|-----------------|
--------------------|--------------|------------------|-----------------|
--------------------|--------------|------------------|-----------------|
--------6-----6-----|--------------|--6-------6-------|--5----6----5----|
--------6-----6-----|--------------|--6-------6-------|--5----6----5----|
     


Gtr I
--------------------------|-----------------|------------|
--------------------------|-----------------|------------|
--------------------------|-----------------|------------|
--------11----------11----|--------11-------|--11--------|
--------------------------|-----------------|------------|
--0--0--10----0--0--10----|--0--0--10----0--|--10--------|
pm----        ----           ----        -

Gtr II
--------------------------|-----------------|------------|
--------------------------|-----------------|------------|
--------------------------|-----------------|------------|
--------------------------|-----------------|------------|
-----------------1--2-----|--3--------------|--6---------|
--0--4--3--2--0--------0--|-----0--4--3--2--|--6---------|


Gtr I
-----------------|--------------|--------------|-----------------|
-----------------|--------------|--------------|-----------------|
-----------------|--------------|--------------|-----------------|
--------11-------|--11----11----|--------11----|-----------------|
-----------------|--------------|--------------|--5----6----5----|
--0--0--10----0--|--10----10----|--0--0--10----|--5----6----5----|
pm----        -                    ----

Gtr II
-----------------|--------------|--------------|-----------------|
-----------------|--------------|--------------|-----------------|
-----------------|--------------|--------------|-----------------|
-----------------|--------------|--------------|-----------------|
-----------------|--6-----6-----|--x--x--x--x--|--5----6----5----|
--0--3--4--3--2--|--6-----6-----|--x--x--x--x--|--5----6----5----|


Gtr I
--------------------------|--------------|--------------------|--------------------|
--------------------------|--------------|--------------------|--------------------|
--------------------------|--------------|--------------------|--------------------|
--------11----------11----|--------11----|--------11----11----|--------11----11----|
--------------------------|--------------|--------------------|--------------------|
--0--0--10----0--0--10----|--0--0--10----|--0--0--10----10----|--0--0--10----10----|
pm----        ----           ----           ----                 ----

Gtr II
--------------------------|--------------|--------------------|--------------------|
--------------------------|--------------|--------------------|--------------------|
--------------------------|--------------|--------------------|--------------------|
--------------------------|--------------|--------------------|--------------------|
-----------------1--2-----|--3-----------|--------6-----6-----|--------------6-----|
--0--4--3--2--0--------0--|-----0--4--3--|--0--0--6-----6-----|--0--4--3--2--6-----|


Gtr I
--------------------|--------------|------------------|-----------------|
--------------------|--------------|------------------|-----------------|
--------------------|--------------|------------------|-----------------|
--------11----11----|--------11----|--11------11------|-----------------|
--------------------|--------------|------------------|--5----6----5----|
--0--0--10----10----|--0--0--10----|--10------10------|--5----6----5----|
pm----                 ----              

Gtr II
--------------------|--------------|------------------|-----------------|
--------------------|--------------|------------------|-----------------|
--------------------|--------------|------------------|-----------------|
--------------------|--------------|------------------|-----------------|
--------6-----6-----|--x--x--x--x--|--6-------6-------|--5----6----5----|
--0--0--6-----6-----|--x--x--x--x--|--6-------6-------|--5----6----5----|
 


--------------------------|--------------|
--------------------------|--------------|
--------------------------|--------------|
--5--4--4--4--5--4--4--8--|--5--4--4--4--|
--4--3--3--3--4--3--3--7--|--4--3--3--3--|
--------------------------|--------------|

-------------------------|--------------|--------------------------|
-------------------------|--------------|--------------------------|
-------------------------|--------------|--------------------------|
--5--4--4--5--4--4-------|--5--4--4--8--|--5--4--4--4--5--4--4-----|
--4--3--3--4--3--3-------|--4--3--3--7--|--4--3--3--3--4--3--3-----|
--------------------0----|--------------|-----------------------0--|

--------------------------|-------------------------|--------------------------|
--------------------------|-------------------------|--------------------------|
--------------------------|-------------------------|--------------------------|
--5--4--4--8--5--4--4-----|--5--4--4--5--4--4-------|--5--4--4--8--5--4--4--4--|
--4--3--3--7--4--3--3-----|--4--3--3--4--3--3-------|--4--3--3--7--4--3--3--3--|
-----------------------0--|--------------------0----|--------------------------|



-------------------|-------------------|-------------------|
-------------------|-------------------|-------------------|
-------------------|-------------------|-------------------|
-------------------|-------------------|-------------------|
--8~b--------------|-------------------|-------------------|
-------------------|-------------------|-------------------|



--------------------------|--------------------------|
--------------------------|--------------------------|
--------------------------|--------------------------|
--5--4--4--4--5--4--4-----|--5--4--4--8--5--4--4-----|
--4--3--3--3--4--3--3-----|--4--3--3--7--4--3--3-----|
-----------------------0--|-----------------------0--|

-------------------------|---------------------------|
-------------------------|---------------------------|
-------------------------|---------------------------|
--5--4--4--5--4--4-------|--5--4--4--8--5--4--4--4---|
--4--3--3--4--3--3-------|--4--3--3--7--4--3--3--3---|
--------------------0----|---------------------------|



--------------------------|----------------------------------|
--------------------------|----------------------------------|
-----------8--------------|-----------8---------8---------8--|
--7--7-----7-----7--7--7--|-----------7---------7---------7--|
--6--6-----6-----6--6--6--|-----------6---------6---------6--|
--5--5-----------5--5--5--|--5-5-5-5-----5-5-5-----5-5-5-----|
                          N.H-------     -----     -----

------------------------------|------------------------|----------------------|
------------------------------|------------------------|----------------------|
-----------8----8----8----8---|----[    tapping   ]----|--8----8----8----8----|
-----------7----7----7----7---|------------------------|--7----7----7----7----|
-----------6----6----6----6---|------------------------|--6----6----6----6----|
--5-5-5-5---------------------|------------------------|----------------------|
N.H------


--------------------------|----------------------------------|
--------------------------|----------------------------------|
-----------8--------------|-----------8---------8---------8--|
--7--7-----7-----7--7--7--|-----------7---------7---------7--|
--6--6-----6-----6--6--6--|-----------6---------6---------6--|
--5--5-----------5--5--5--|--5-5-5-5-----5-5-5-----5-5-5-----|
                          N.H-------     -----     -----

------------------------------|------------------------|----------------------|
------------------------------|------------------------|----------------------|
-----------8----8----8----8---|----[    tapping   ]----|--8----8----8----8----|
-----------7----7----7----7---|------------------------|--7----7----7----7----|
-----------6----6----6----6---|------------------------|--6----6----6----6----|
--5-5-5-5---------------------|------------------------|----------------------|
N.H------


------------------------|----------------------|
------------------------|----------------------|
----[    tapping   ]----|--8----8----8----8----|
------------------------|--7----7----7----7----|
------------------------|--6----6----6----6----|
------------------------|----------------------|

------------------------|----------------------|
------------------------|----------------------|
----[    tapping   ]----|--8----8----8----8----|
------------------------|--7----7----7----7----|
------------------------|--6----6----6----6----|
------------------------|----------------------|

------------------------|----------------------|-----------------------------|
------------------------|----------------------|-----------------------------|
----[    tapping   ]----|--8----8----8----8----|-----------------------------|
------------------------|--7----7----7----7----|-----------------------------|
------------------------|--6----6----6----6----|-------10---------9-------8--|
------------------------|----------------------|--9----------8---------7-----|



----------------------------|-------------------|
----------------------------|-------------------|
----------------------------|-------------------|
----------------------------|-------------------|
--8--8--8--8----------------|-------------------|
--6--6--6--6----------------|-------------------|
pm----------

----------------------|------------------------------|---------------------------|
----------------------|------------------------------|---------------------------|
----------------------|------------------------------|---------------------------|
----------------------|------------------------------|---------------------------|
--8--8--8--8----------|-------------8--8--8--8-------|--8--8--8--8---------------|
--6--6--6--6----------|--6--7--4----6--6--6--6-------|--6--6--6--6----6--7--4----|
pm----------                        ----------          ----------

------------------|------------------------|----------------------|
------------------|------------------------|----------------------|
------------------|------------------------|----------------------|
------------------|------------------16----|--/20~----------------|
--8--8--8--8------|------------15----------|----------------------|
--6--6--6--6------|-/14--------------------|----------------------|
pm---------- 

----------------------------|-------------------|
----------------------------|-------------------|
----------------------------|-------------------|
----------------------------|-------------------|
--8--8--8--8----------------|-------------------|
--6--6--6--6----------------|-------------------|
pm----------

----------------------|------------------------------|---------------------------|
----------------------|------------------------------|---------------------------|
----------------------|------------------------------|---------------------------|
----------------------|------------------------------|---------------------------|
--8--8--8--8----------|-------------8--8--8--8-------|--8--8--8--8---------------|
--6--6--6--6----------|--6--7--4----6--6--6--6-------|--6--6--6--6---------------|
pm----------                        ----------          ----------



--------------|--------------------------|--------------------|-----------|
--------------|--------------------------|--------------------|-----------|
--9--9--9--9--|--------------------------|--------------------|--9--9--9--|
--8--8--8--8--|--------------------------|--------------------|--8--8--8--|
--7--7--7--7--|--------------------------|--------------------|--7--7--7--|
--6--6--6--6--|--------------------------|--------------------|--6--6--6--|

-----------------------|---------------------------|-------------------------|
-----------------------|---------------------------|-------------------------|
-----------------------|-------------9--9--9-------|--9--9--9----------------|
-----------------------|-------------8--8--8-------|--8--8--8----------------|
-----------------------|-------------7--7--7-------|--7--7--7----------------|
-----------------------|--6--7--4----6--6--6-------|--6--6--6-----6--7--4----|


--------------|--------------------------|--------------------|-----------|
--------------|--------------------------|--------------------|-----------|
--9--9--9--9--|--------------------------|--------------------|--9--9--9--|
--8--8--8--8--|--------------------------|--------------------|--8--8--8--|
--7--7--7--7--|--------------------------|--------------------|--7--7--7--|
--6--6--6--6--|--------------------------|--------------------|--6--6--6--|

-----------------------|---------------------------|-------------------------|
-----------------------|---------------------------|-------------------------|
-----------------------|-------------9--9--9-------|--9--9--9----------------|
-----------------------|-------------8--8--8-------|--8--8--8----------------|
-----------------------|-------------7--7--7-------|--7--7--7----------------|
-----------------------|--6--7--4----6--6--6-------|--6--6--6-----6--7--4----|

 
--------------|--------------------------|--------------------|-----------|
--------------|--------------------------|--------------------|-----------|
--9--9--9--9--|--9--9--9--9--9--9--9--9--|--9--9--9--9--9--9--|--9--9--9--|
--8--8--8--8--|--8--8--8--8--8--8--8--8--|--8--8--8--8--8--8--|--8--8--8--|
--7--7--7--7--|--7--7--7--7--7--7--7--7--|--7--7--7--7--7--7--|--7--7--7--|
--6--6--6--6--|--6--6--6--6--6--6--6--6--|--6--6--6--6--6--6--|--6--6--6--|
               pm-------------------------------------------
 
-----------------------|---------------------------|-------------------------|
-----------------------|---------------------------|-------------------------|
--9--9--9--9--9--9--9--|-------------9--9--9-------|--9--9--9----------------|
--8--8--8--8--8--8--8--|-------------8--8--8-------|--8--8--8----------------|
--7--7--7--7--7--7--7--|-------------7--7--7-------|--7--7--7----------------|
--6--6--6--6--6--6--6--|--6--7--4----6--6--6-------|--6--6--6-----6--7--4----|
pm-------------------


--------------|--------------------------|--------------------|-----------|
--------------|--------------------------|--------------------|-----------|
--9--9--9--9--|--9--9--9--9--9--9--9--9--|--9--9--9--9--9--9--|--9--9--9--|
--8--8--8--8--|--8--8--8--8--8--8--8--8--|--8--8--8--8--8--8--|--8--8--8--|
--7--7--7--7--|--7--7--7--7--7--7--7--7--|--7--7--7--7--7--7--|--7--7--7--|
--6--6--6--6--|--6--6--6--6--6--6--6--6--|--6--6--6--6--6--6--|--6--6--6--|
               pm-------------------------------------------
 
-----------------------|---------------------------|-------------------------|
-----------------------|---------------------------|-------------------------|
--9--9--9--9--9--9--9--|-------------9--9--9-------|--9--9--9----------------|
--8--8--8--8--8--8--8--|-------------8--8--8-------|--8--8--8----------------|
--7--7--7--7--7--7--7--|-------------7--7--7-------|--7--7--7----------------|
--6--6--6--6--6--6--6--|--6--7--4----6--6--6-------|--6--6--6----------------|
pm-------------------



---------------------------|--------------------------|----------------|
--11-------11-------14-----|--11----11----11----11----|--14-----14-----|
--9--------9--------12-----|--9-----9-----9-----9-----|--12-----12-----|
--8--------8--------11-----|--8-----8-----8-----8-----|--11-----11-----|
---------------------------|--------------------------|----------------|
---------------------------|--------------------------|----------------|
 
---------------------------|----------------------|----------------|
--11-------11-------14-----|--11--------11--------|--14-----14-----|
--9--------9--------12-----|--9---------9---------|--12-----12-----|
--8--------8--------11-----|--8---------8---------|--11-----11-----|
---------------------------|----------------------|----------------|
---------------------------|----------------------|----------------|



-------------|------------------------------|------------------------------|
--11----11---|------------------------------|------------------------------|
--9-----9----|------------------------------|--8--9--10--11--8--9--10--11--|
--8-----8----|--8--9--10--11--8--9--10--11--|------------------------------|
-------------|------------------------------|------------------------------|
-------------|------------------------------|------------------------------|
              pm---------------------------------------------------------
                
----------------8--9--10--11--|--7----------------|
--8--9--10--12----------------|-------------------|
------------------------------|-------------------|
------------------------------|-------------------|
------------------------------|-------------------|
------------------------------|-------------------|
pm------------

Добавлено: 02.07.2012
Другие материалы по этой песне:
  • Аккорды и текст

Страница создана 02.07.2012
http://primanota.ru/dillinger-escape-plan/clip-the-apexaccept-instruction-chords.htm
Привет, Гость.
Предлагаем пройти революционный курс по гитаре.
Подарок от PrimaNota.Ru, забирай!