PrimaNota.ru - самый крупный в мире бесплатный архив песенных текстов, аккордов, табулатур и нот


Dilermando Reis - Uma Valsa E Dois Amores - таба, видео

Регистрация Запомнить меня
Войти через:  Facebook Google Twitter Vk Yandex Mail.ru

Dilermando Reis - Uma Valsa E Dois Amores - таба, видео

Печатать
Просмотров: 119
3/4 time

 |       |       |        |       |       |        |       |       |
|------------------------|------------------------|------------------------|
|--------------------0-2=|====4---2---0-----------|--------0---------------|
|----------------1-------|----------------1-------|--------1---------------|
|------------2-----------|--------------------2---|1===============--------|
|----2---4---------------|------------------------|----------------2-------|
|0=======================|0=======================|------------------------|

 |       |       |        |       |       |        |       |       |
|----------------0-------|------------------------|------------------------|
|--------0-------0-------|--------------------0-2=|====4---2---0-----------|
|--------1-------1-------|----------------1-------|----------------1-------|
|------------------------|------------2-----------|--------------------2---|
|4=======================|----2---4---------------|------------------------|
|0=======================|0=======================|0=======================|

                                            pizz.[-------------------------
 |       |       |        |       |       |        |       |       |
|------------------------|------------2---2-------|--------2---4---5---9---|
|--------0---------------|------------2---2-------|----2-------------------|
|--------1---------------|------------2---2-------|------------------------|
|1===============--------|------------------------|------------------------|
|----------------2-------|4=======================|------------------------|
|------------------------|2=======================|2==============---------|

-------------------------]
 |       |       |        |       |       |        |       |       |
|14--12--14--12--9-------|------------------------|------------------------|
|--------------------10--|9===============7-------|5===============--------|
|------------------------|------------------------|--------3-------3-------|
|------------------------|------------------------|--------5-------5-------|
|------------------------|------------------------|3===============--------|
|------------------------|------------------------|------------------------|

 |       |       |        |       |       |        |       |       |
|------------------------|2===============--------|3===============7-------|
|4===============--------|--------4---------------|--------4---------------|
|--------2-------3-H-4---|--------4-------3-H-4---|--------4---------------|
|--------4---------------|------------------------|------------------------|
|2=======================|========================|========================|
|------------------------|------------------------|------------------------|


 |       |       |        |       |       |        |       |       |
|4===============4-------|----0---2---4---2---0---|----0---2---4---2---0---|
|5-------5-------5-------|------------------------|3-----------------------|
|4-------4-------4-------|------------------------|------------------------|
|------------------------|------------------------|------------------------|
|------------------------|------------------------|------------------------|
|0=======================|0=======================|0=======================|


                                           pizz.  [------------------------]
 |       |       |        |       |       |        |       |       |
|----0---2---4---2---0---|2=======================|------------------------|
|3-----------------------|--------2-------2-------|------------------------|
|------------------------|--------2-------2-------|6-------5-------4-------|
|------------------------|------------------------|5-------4-------3-------|
|------------------------|0=======================|7-------6-------5-------|
|4=======================|------------------------|5-------4-------3-------|

|       |       |         |       |       |        |       |       |
|------------6-----------|------------6-----------|----9-------9-------8---|
|----7---9-------9---7---|----7---9-------9---7---|------------------------|
|3-------6-------6-------|9-------6-------6-------|----------------8-------|
|2-------8-------8-------|--------8-------8-------|--------7---------------|
|4-----------------------|------------------------|------------------------|
|2-----------------------|0=======================|7=======================|

 |       |       |        |       |       |        |       |       |
|----7-------7-------7---|------------------------|------------------------|
|------------------------|--------------------0-2=|====4---2---0-----------|
|------------------------|----------------1-------|----------------1-------|
|----------------7-------|------------2-----------|--------------------2---|
|--------9---------------|----2---4---------------|------------------------|
|7=======================|0=======================|0=======================|

 |       |       |        |       |       |        |       |       |
|------------------------|------------------------|------------------------|
|--------0---------------|--------2---------------|--------1-------1-H-2---|
|--------1---------------|--------4---------------|--------1---------------|
|1===============--------|--------3---------------|--------3---------------|
|----------------2---3---|4===============--------|------------------------|
|------------------------|----------------4---2---|1=======================|

 |       |       |        |       |       |       #|       |       |
|5===============--------|4===============2-------|0===============--------||
|--------2-------1-H-2---|--------4===============|------------------------||
|--------2---------------|--------2===============|----4---1---------------||
|------------------------|------------------------|------------2-----------||
|0===============--------|2=======================|----------------2-------||
|------------------------|------------------------|0===============----4---||
                                                  #

Repeat From beginning then continue...

 |       |       |        |       |       |        |       |       |
|----------------0---1---|2===============0-------|------------------------|
|--------0===============|--------3===========3---|0===============--------|
|--------1===============|--------1===============|--------1---------------|
|------------------------|------------------------|--------0-------2-------|
|------------------------|2=======================|------------------------|
|0=======================|------------------------|0=======================|

 |       |       |        |       |       |        |       |       |
|------------------------|----------------2---3---|4===============2-------|
|--------2-------2-------|--------2===============|--------2-----------5---|
|--------2-------2-------|--------2===============|--------3---------------|
|4===============----3---|2===============--------|------------------------|
|0=======================|4=======================|------------------------|
|------------------------|------------------------|2=======================|

 |       |       |        |       |       |        |       |       |
|------------------------|----4-------4-------4---|----2-------2---4---5---|
|2===============----2---|--------4-------4-------|--------4-------4-------|
|--------2-------5-------|--------2-------2-------|--------2-------2-------|
|--------2---------------|------------------------|------------------------|
|4===============--------|3===============--------|2=======================|
|------------------------|------------------------|------------------------|

 |       |       |        |       |       |        |       |       |
|7===============4-------|------------------------|4===============--------|
|--------5-----------7---|5===============4---5---|--------2-------2-------|
|--------4---------------|--------7---------------|--------2-------2-------|
|------------------------|--------6---------------|------------------------|
|------------------------|------------------------|0=======================|
|0=======================|0=======================|------------------------|

                                  pizz. [-------]     [-------------------]
 |       |       |        |       |       |        |       |       |
|2===============0---2---|4===============5---4---|2---------------4---2---|
|--------1-------1---1---|------------5---7---5---|------------4===========|
|--------2-------2-------|--------4---------------|--------2---------------|
|------------------------|----6-------------------|----4-------------------|
|0=======================|------------------------|2=======================|
|------------------------|0=======================|------------------------|

pizz.[-------------------]
 |       |       |
|0===============--------||
|----0-------------------||
|--------1---------------|| Play from the beginning to #
|------------2-----------|| Then continue...
|----------------2-------||
|--------------------4---||

 |       |       |        |       |       |        |       |       |
|0===============--------|----------------0---2---|4===============4-------|
|--------------------0---|------------1-----------|------------5-------5---|
|----------------1-------|--------2---------------|--------4---------------|
|------------2-----------|----2-------------------|----6-------------------|
|--------2---------------|0-----------------------|------------------------|
|0---4-------------------|------------------------|0=======================|

 |       |       |        |       |       |        |       |       |
|5===========5---7---8---|11--------------11--10--|9-------9===========----|
|------------------------|------------9-----------|9-------9===========----|
|--------5---------------|--------9---------------|9-------9===========----|
|----7-------------------|----9-------------------|9-------9===========----|
|0=======================|------------------------|------------------------|
|------------------------|0=======================|--------------------0---|

 |       |       |
|9-----------------------||
|9-----------------------||
|9-----------------------||
|9-----------------------||
|------------------------||
|------------------------||


Alternate Fingering for line 8 -

|       |       |         |       |       |        |       |       |
|----2---4---6---4---2---|----2---4---6---4---2---|----9-------9-------8---|
|--------2-------2-------|5-------2-------2-------|------------------------|
|3-------3-------3-------|--------3-------3-------|----------------8-------|
|2-----------------------|------------------------|--------7---------------|
|4-----------------------|------------------------|------------------------|
|2-----------------------|0=======================|7=======================|
Добавлено: 19.06.2012
Другие материалы по этой песне:

Страница создана 07.03.2012
http://primanota.ru/dilermando-reis/uma-valsa-e-dois-amores-chords.htm
Привет, Гость.
Предлагаем пройти революционный курс по гитаре.
Подарок от PrimaNota.Ru, забирай!