PrimaNota.ru - самый крупный в мире бесплатный архив песенных текстов, аккордов, табулатур и нот


Dildo - Por Siempre - таба, видео

Регистрация Запомнить меня
Войти через:  Facebook Google Twitter Vk Yandex Mail.ru

Dildo - Por Siempre - таба, видео

Печатать
Просмотров: 108
                                     DLD - Por siempre


by Doppelganger


P.M.= Palm Muted
x - dead mute
/ - slide up
\\ - slide down
~ vibrato

 1a guitarra Inicio

-|-------------------------------------------------------------------------|
-|-7-7-7-7-7-7-7-7-7-7--8---7---10---7---8---7-----------------------------|
-|-7-7-7-7-7-7-7-7-7-7--7---7----7---7---7---7-----------------------------|
-|-------------------------------------------------------------------------|
-|-------------------------------------------------------------------------|
-|-------------------------------------------------------------------------|


2a guitarra
-|------------------------------------------------------------------------|
-|------------------------------------------------------------------------|
-|-7-----7--7--7-------7------7-7-7-7-7-7-7-7-7-7-7-7-7-7-7-7-7--/--------|
-|-7-----7--7--7-------7------7-7-7-7-7-7-7-7-7-7-7-7-7-7-7-7-7--/--------|
-|-5-----5--5--5-------5------5-5-5-5-5-5-5-5-5-5-5-5-5-5-5-5-5--/--------|
-|------------------------------------------------------------------------|


-|------------------------------------------------------------------------|
-|------------------------------------------------------------------------|
-|--11-11-11-11-11-11-11-11-11-11-11-11-11-11-11-11--/--------------------|
-|--11-11-11-11-11-11-11-11-11-11-11-11-11-11-11-11--/--------------------|
-|---9--9--9--9--9--9--9--9--9--9--9--9--9--9--9--9--/--------------------|
-|------------------------------------------------------------------------|

-|----------------------------------------------------------------------|
-|----------------------------------------------------------------------|
-|--4-4-4-4-4-4-4-4-4-4-4-4-4-4-4-4-------------------------------------|
-|--4-4-4-4-4-4-4-4-4-4-4-4-4-4-4-4--8-8-8-8-8-8-8-7-7-7-7-7-7-7-7------|
-|--2-2-2-2-2-2-2-2-2-2-2-2-2-2-2-2--8-8-8-8-8-8-8-7-7-7-7-7-7-7-7------|
-|-----------------------------------6-6-6-6-6-6-6-5-5-5-5-5-5-5-5------|

-|------------------------------------------------------------------------|
-|------------------------------------------------------------------------|
-|----7-7-7-7-7-7-7-7-7-7-7-7-7-7-7-7-7--/--------------------------------|
-|----7-7-7-7-7-7-7-7-7-7-7-7-7-7-7-7-7--/--------------------------------|
-|----5-5-5-5-5-5-5-5-5-5-5-5-5-5-5-5-5--/--------------------------------|
-|------------------------------------------------------------------------|


-|------------------------------------------------------------------------|
-|------------------------------------------------------------------------|
-|--11-11-11-11-11-11-11-11-11-11-11-11-11-11-11-11--/--------------------|
-|--11-11-11-11-11-11-11-11-11-11-11-11-11-11-11-11--/--------------------|
-|---9--9--9--9--9--9--9--9--9--9--9--9--9--9--9--9--/--------------------|
-|------------------------------------------------------------------------|

-|------------------------------------------------------------------------|
-|------------------------------------------------------------------------|
-|--4-4-4-4-4-4-4-4-4-4-4-4-4-4-4-4---------------------------------------|
-|--4-4-4-4-4-4-4-4-4-4-4-4-4-4-4-4--8-8-8-8-8-8-8-7-7-7-7-7-7-7-7-------7|
-|--2-2-2-2-2-2-2-2-2-2-2-2-2-2-2-2--8-8-8-8-8-8-8-7-7-7-7-7-7-7-7-------7|
-|-----------------------------------6-6-6-6-6-6-6-5-5-5-5-5-5-5-5-------5|


1a guitarra

-|-------------------------------------------------------------------------|
-|-7-7-7-7-7-7-7-7-7-7--8---7---10---7---8---7-----------------------------|
-|-7-7-7-7-7-7-7-7-7-7--7---7----7---7---7---7-----------------------------|
-|-------------------------------------------------------------------------|
-|-------------------------------------------------------------------------|
-|-------------------------------------------------------------------------|


1a guitarra 0:54 y 1:51
-|----------------------------------------------------------------------|
-|----------------------------------------------------------------------|
-|---------7---------------11----------------------------4--------------|
-|----7------------------------11-------------------4--------4----------|
-|-5-----5--------5--\--9---------9------9--\--2-------2--------2-------|
-|----------------------------------------------------------------------|

-|-----------------------------------------------------------------------|
-|-----------------------------------------------------------------------|
-|-----------------------------------------------------------------------|
-|-----------8-----------------7-----------------------------------------|
-|--------8-----8-----------7-----7--------------------------------------|
-|--6--6----------6---5--5-----------5-----------------------------------|


1a guitarra

-|-------------------------------------------------------------------------|
-|-7-7-7-7-7-7-7-7-7-7--8---7---10---7---8---7-----------------------------|
-|-7-7-7-7-7-7-7-7-7-7--7---7----7---7---7---7-----------------------------|
-|-------------------------------------------------------------------------|
-|-------------------------------------------------------------------------|
-|-------------------------------------------------------------------------|

2a guitarra
-|------------------------------------------------------------------------|
-|------------------------------------------------------------------------|
-|----7-7-7-7-7-7-7-7-7-7-7-7-7-7-7-7-7--/--------------------------------|
-|----7-7-7-7-7-7-7-7-7-7-7-7-7-7-7-7-7--/--------------------------------|
-|----5-5-5-5-5-5-5-5-5-5-5-5-5-5-5-5-5--/--------------------------------|
-|------------------------------------------------------------------------|


-|------------------------------------------------------------------------|
-|------------------------------------------------------------------------|
-|--11-11-11-11-11-11-11-11-11-11-11-11-11-11-11-11--/--------------------|
-|--11-11-11-11-11-11-11-11-11-11-11-11-11-11-11-11--/--------------------|
-|---9--9--9--9--9--9--9--9--9--9--9--9--9--9--9--9--/--------------------|
-|------------------------------------------------------------------------|

-|----------------------------------------------------------------------|
-|----------------------------------------------------------------------|
-|--4-4-4-4-4-4-4-4-4-4-4-4-4-4-4-4-------------------------------------|
-|--4-4-4-4-4-4-4-4-4-4-4-4-4-4-4-4--8-8-8-8-8-8-8-7-7-7-7-7-7-7-7------|
-|--2-2-2-2-2-2-2-2-2-2-2-2-2-2-2-2--8-8-8-8-8-8-8-7-7-7-7-7-7-7-7------|
-|-----------------------------------6-6-6-6-6-6-6-5-5-5-5-5-5-5-5------|

minuto  2 :28                                                          P.M.
-|----------++-----------------------------------------*------------------------------*------|
-|-------------------------------------------------------------------------------------------|
-|-7---------------7---------------7---------------------------------------------------------|
-|-7----8----5-----7----8----5-----7-----8----8---5-----7-7-7-7-7-7-7-7-7-7-7-7-7-7-7-7------|
-|-5----8----5-----5----8----5-----5-----8----8---5-----7-7-7-7-7-7-7-7-7-7-7-7-7-7-7-7------|
-|------6----3----------6----3-----------6----6---3-----5-5-5-5-5-5-5-5-5-5-5-5-5-5-5-5------|


2a guitarra
-|------------------------------------------------------------------------|
-|------------------------------------------------------------------------|
-|----7-7-7-7-7-7-7-7-7-7-7-7-7-7-7-7-7--/--------------------------------|
-|----7-7-7-7-7-7-7-7-7-7-7-7-7-7-7-7-7--/--------------------------------|
-|----5-5-5-5-5-5-5-5-5-5-5-5-5-5-5-5-5--/--------------------------------|
-|------------------------------------------------------------------------|


-|------------------------------------------------------------------------|
-|------------------------------------------------------------------------|
-|--11-11-11-11-11-11-11-11-11-11-11-11-11-11-11-11--/--------------------|
-|--11-11-11-11-11-11-11-11-11-11-11-11-11-11-11-11--/--------------------|
-|---9--9--9--9--9--9--9--9--9--9--9--9--9--9--9--9--/--------------------|
-|------------------------------------------------------------------------|

-|----------------------------------------------------------------------|
-|----------------------------------------------------------------------|
-|--4-4-4-4-4-4-4-4-4-4-4-4-4-4-4-4-------------------------------------|
-|--4-4-4-4-4-4-4-4-4-4-4-4-4-4-4-4--8-8-8-8-8-8-8-7-7-7-7-7-7-7-7------|
-|--2-2-2-2-2-2-2-2-2-2-2-2-2-2-2-2--8-8-8-8-8-8-8-7-7-7-7-7-7-7-7------|
-|-----------------------------------6-6-6-6-6-6-6-5-5-5-5-5-5-5-5------|


1a guitarra X 4 final

-|-------------------------------------------------------------------------|
-|-7-7-7-7-7-7-7-7-7-7--8---7---10---7---8---7-----------------------------|
-|-7-7-7-7-7-7-7-7-7-7--7---7----7---7---7---7-----------------------------|
-|-------------------------------------------------------------------------|
-|-------------------------------------------------------------------------|
-|-------------------------------------------------------------------------|


Se aceptan Correcciones y comentarios.

Doppelganger
shadowndraken@hotmail.com
Добавлено: 03.06.2012
Другие материалы по этой песне:

Страница создана 14.04.2012
http://primanota.ru/dildo/por-siempre-chords.htm
Привет, Гость.
Предлагаем пройти революционный курс по гитаре.
Подарок от PrimaNota.Ru, забирай!