PrimaNota.ru - самый крупный в мире бесплатный архив песенных текстов, аккордов, табулатур и нот


Diiv - Wait - аккорды и текст, таба, бас-таба, видео

Регистрация Запомнить меня
Войти через:  Facebook Google Twitter Vk Yandex Mail.ru

Diiv - Wait - аккорды и текст, таба, бас-таба, видео

Печатать
Просмотров: 248
Wait
Diiv
DIIV - Wait
song: https://www.youtube.com/watch?v=b_nnRIuRsos
NB: Entire song rests on the chords G and F played after eachother

INTRO
   G                               F
e|-----------------------------------------------------------------|
B|-------------------------5-5-5-5---------------------------------| \
G|-7-7-7-7-7-7-7-7-7-7-7-7---------5-5-5-5-5-5-5-5-------------5-5-|  2x
D|-------------------------------------------------7-7-7-7-7-7-----| /
A|-----------------------------------------------------------------|
E|-----------------------------------------------------------------|

MAIN THEME (0:13)
   G                                               F
e|-10-10-10-10-10-10-10-10-10-10-10-10-12-12-12-12-------------------------------------------------|\
B|-------------------------------------------------13-13-13-13-13-13-13-13-------------10-10-13-13-| 2x
G|-------------------------------------------------------------------------12-12-12-12-------------|/
D|-------------------------------------------------------------------------------------------------|
A|-------------------------------------------------------------------------------------------------|
E|-------------------------------------------------------------------------------------------------|

   G                                               F
e|-------------------------------------10-10----------------------------12--12----10-------|\
B|-12-12-12-12-12-12-12-12-13-13-13-13-------------10-10-10-10-10-10-10--------10-----13---| 2x
G|-------------------------------------------12-12-----------------------------------------|/
D|-----------------------------------------------------------------------------------------|
A|-----------------------------------------------------------------------------------------|
E|-----------------------------------------------------------------------------------------|

VERSE
    G                F
Innocent and late for love 
        G             F
in your city weights above
    G                F
Innocent and late for love 
     G                F
In a city I'd wait so long 
   G                         F
To feel my body I like to be alone
    G              F
Innocently wait for love

MAIN THEME (1:16-1:40)
G    F   4x

INSTRUMENTAL PART (1:41-2:06)
G    F   4x

VOCAL BREAK (2:06-2:19)
G         F       \ 2x 
Oooooh oooooooooh /

SECOND INSTRUMENTAL PART (2:19-2:45)
G    F   4x

OUTRO (2:45-end of the song)(guitar strums a G throughout this part (twelfth fret on the G-string)
G    F   4x

End on G
Добавлено: 25.07.2015
Другие материалы по этой песне:
  • Аккорды и текст

Страница создана 23.06.2013
http://primanota.ru/diiv/wait-chords.htm
Привет, Гость.
Предлагаем пройти революционный курс по гитаре.
Подарок от PrimaNota.Ru, забирай!