PrimaNota.ru - самый крупный в мире бесплатный архив песенных текстов, аккордов, табулатур и нот


Diiv - How Long Have You Known - таба, бас-таба, видео

Регистрация Запомнить меня
Войти через:  Facebook Google Twitter Vk Yandex Mail.ru

Diiv - How Long Have You Known - таба, бас-таба, видео

Печатать
Просмотров: 102
DIIV - How Long Have You Known?
Oshin (2012) // Captured Tracks

www.facebook.com/diivnyc

Tabbed by Isaac Murguia, May 2012.

INTRO/VERSE:
e|---------------------------------|-----------------------------|
B|---------------------------------|-----------------------------|
G|-0-------0-------0-------0-------|-2-------2-------2-------2-4-|
D|---2-0-2---2-0-2---2-0-2---2-0-2-|---2-0-2---2-0-2---2-0-2-----|
A|---------------------------------|-----------------------------|
E|---------------------------------|-----------------------------|

CHORUS:       [x4]                          [end of 4th time]
e|-----------------------------------------|----10-----------|
B|-12-12--8-8-10--------8-8------8--10-8---|-10--------------|
G|---------------9--7-9------7-9---------9-|-------9---------|
D|-----------------------------------------|-----------------|
A|-----------------------------------------|-----------------|
E|-----------------------------------------|-----------------|

BRIDGE A: [x2]
  [x1]                            [x2]
e|-------------------------------|----------------------------|
B|-13----------------------------|-13-------------------------|
G|----14-12-14-------------------|----14-12-14----------------|
D|-------------14-14-14-12-12-12-|-------------14-14-14-12-10-|
A|-------------------------------|----------------------------|
E|-------------------------------|----------------------------|

e|----------------------------------------|
B|-------------------13--13-13--15--15-17-|
G|----------------------------------------|
D|-/15--15-15--15-15----------------------|
A|----------------------------------------|
E|----------------------------------------|

BRIDGE B: [x2]
  [x3]                                    [x1]
e|------------------15-15----------------|----12-12-12-10--10-----------------|
B|-12-13-12-13--12--------12-13-12-13-12-|-12-----------------13-10--13-10----|
G|---------------------------------------|---------------------------------12-|
D|---------------------------------------|------------------------------------|
A|---------------------------------------|------------------------------------|
E|---------------------------------------|------------------------------------|

Repeat INTRO/VERSE (x2)

OUTRO/CHORUS VARIATION:
e|----------------------------------------|
B|-12-12--8-8-10--------8-8-----8--10-8---|
G|---------------9--7-9-----7-9---------9-|
D|----------------------------------------| [x1]
A|----------------------------------------|
E|----------------------------------------|

e|------------------------------------10---|
B|-12-12--8-8-10--------8-8-----8--10------|
G|---------------9--7-9-----7-9----------9-| [x2]
D|-----------------------------------------|
A|-----------------------------------------|
E|-----------------------------------------|

e|----------------------------------------|----------|
B|-12-12--8-8-10--------8-8-----8--10-8---|-12-12----|  the end.
G|---------------9--7-9-----7-9---------9-|----------|
D|----------------------------------------|----------|
A|----------------------------------------|----------|
E|----------------------------------------|----------|
Добавлено: 02.09.2013
Другие материалы по этой песне:
  • Аккорды и текст

Страница создана 02.09.2013
http://primanota.ru/diiv/how-long-have-you-known-chords.htm
Привет, Гость.
Предлагаем пройти революционный курс по гитаре.
Подарок от PrimaNota.Ru, забирай!