PrimaNota.ru - самый крупный в мире бесплатный архив песенных текстов, аккордов, табулатур и нот


Digitalism - Pogo - текст песни, бас-таба, видео

Регистрация Запомнить меня
Войти через:  Facebook Google Twitter Vk Yandex Mail.ru

Digitalism - Pogo - текст песни, бас-таба, видео

Печатать
Просмотров: 446
Авторы музыки: Jens Moelle, Ismail Tuefekci
Авторы текста: Jens Moelle, Kim Moyes
Probably done using a synthesiser, but sounds good on bass :)

Riff 1
G-------------------------------------------------|
D-------------------------------------------------|
A-6-6-6-6-6-6-6-6-8-8-8-8-8-8-8-8-3-3-3-3-3-3-3-3-|
E-------------------------------------------------|

Riff 2
G-------------------------------|
D-------------------------------|
A-----------------5-5-5-3-3-3-3-|
E-3-3-3-3-5-3-3-5---------------|

Riff 3
G-----------------------------------------------------------|
D-----------------------------------------------------------|
A-----------------------------------------------------------|
E-3-3-3-3-3-3-3-3-3-3-6-8-9h10-6-6-6-6-6-6-6-0h3p0-6-6-5-4--|

Riff 4
G---------------------------------------------------|
D---------------------------------------------------|
A-8-6-6-6-6-6-6-6-6-8-8-8-8-8-8-8-8-3-3-3-3-3-3-3-3-|
E---------------------------------------------------|


Put some more riffs on soon
Добавлено: 29.02.2012
Другие материалы по этой песне:

Страница создана 29.02.2012
http://primanota.ru/digitalism/pogo-chords.htm
Привет, Гость.
Предлагаем пройти революционный курс по гитаре.
Подарок от PrimaNota.Ru, забирай!