PrimaNota.ru - самый крупный в мире бесплатный архив песенных текстов, аккордов, табулатур и нот


Digitalism - Encore - бас-таба, видео

Регистрация Запомнить меня
Войти через:  Facebook Google Twitter Vk Yandex Mail.ru

Digitalism - Encore - бас-таба, видео

Печатать
Просмотров: 172
Artist: Digitalism
Song: Encore
Album: I Love You Dude

Note: This is my first tablature so it may not be 100% accurate.


The bassline kicks in at 0:36

G-----------------------------------------------|
D-----------------------------------------------|   x8
A-----------------------------------------------|
E--9/---5-5-5-5--5-5-5----7/---3-3-3-3--7-7-7---|

After the 8 repeats there's a single slide at 1:36

G-------|
D-------| 
A-------|
E--9/---|

Then there's no bass during the synth-part until 02:08

G----------------------|
D-------14-------------|   x10
A--12--------10---14---|
E----------------------|

2:45

G---------------------------------------------|
D----------14-14-14-14------------------------|   x3
A--12--12---------------10--10--14-14-14-14---|
E---------------------------------------------|

Pause from 2:55 to 3:00, then:

G--------------------------------------------|
D----------14-14-14-14-----------------------|   x16
A----12-12----------------10-10-14-14--16/---|
E--x--------------------x--------------------|

4:00

G----------------------------------|
D--14-14-14-14---------------------|   x4
A----------------------14-14--14---|
E----------------------------------|


Questions? Criticism? 
Email: farsipedram@gmail.com
Добавлено: 26.05.2012
Другие материалы по этой песне:
  • Аккорды и текст

Страница создана 26.05.2012
http://primanota.ru/digitalism/encore-chords.htm
Привет, Гость.
Предлагаем пройти революционный курс по гитаре.
Подарок от PrimaNota.Ru, забирай!