PrimaNota.ru - самый крупный в мире бесплатный архив песенных текстов, аккордов, табулатур и нот


Diez80 - La Chichera - таба, видео

Регистрация Запомнить меня
Войти через:  Facebook Google Twitter Vk Yandex Mail.ru

Diez80 - La Chichera - таба, видео

Печатать
Просмотров: 59
[ch]A[/ch] chichera

Tabbed by: Rob 'karaoke-man' Ferrín
Afinación: standard

Intro (clean guitar):
   C              Am           F              G
e|-----0-0-0-0-0--0-0-3-3-0-0--1-1---1-1---1--3-3-3-3--3-|
b|----1--1-1-1-1--1-1-1-1-1-1--1-1---1-1---1--3-3-3-3--3-|
g|---0---0-0-0-0--2-2-2-2-2-2--2-2---2-2---2--4-4------4-|
d|--2------2-2----2-2-2-2-2-2--3---3-----3----5------5---|
a|-3-------3-3----0-0-0-0-0-0--3---3-----3----5------5---|
e|-----------------------------1---1-----1----3------3---|
   Para que me haces llorar, que no ves que mas no puedo
   para que me haces sufrir, que no ves que mas no puedo
   Yo nunca, nunca había llorado y menos de dolor
   yo nunca, nunca había tomado y menos por un amor


Con dist.:
                     C5                 A5
Para que me haces llorar y te burlas de mi
                F5                   G5
si sabes tu muy bien que yo no se sufrir
                C5                      A5
me voy a emborrachar al no saber mas de ti 
                    F5
que sepan que hoy tomé
                  G5
que hoy me emborraché
    C5    A5     F5   G5  
por ti       por ti
    C5    A5     F5   G5 
Me emborraché, me emborraché...


Bridge:
Guitar 1:
   p.m.           p.m.           p.m.           p.m.
e|--------------------------------------------------------------|
b|--------------------------------------------------------------|
g|--------------------------------------------------------------|
d|-5..............----------------------------------------------|
a|-3..............7..............3..............5..............-|
e|----------------5..............1..............3..............-|

guitar 2:
e|-----------------------|      e|---------------|
b|-----------------------|      b|---------------|
g|-----------5-4---------|      g|-----------4-5-|
d|---------------5-5/7---| X3   d|---5-7-5-7-----|
a|-----------------------|      a|---------------|
e|-----------------------|      e|---------------|

Bueno, esa es la estructura básica de la chichera.

Si crees que esta tablatura es un fraude, o tiene algún error, puedes hacermelo saber,
rob_ferrin@
Добавлено: 11.03.2016
Другие материалы по этой песне:
  • Аккорды и текст

Страница создана 11.03.2016
http://primanota.ru/diez80/la-chichera-chords.htm
Привет, Гость.
Предлагаем пройти революционный курс по гитаре.
Подарок от PrimaNota.Ru, забирай!