PrimaNota.ru - самый крупный в мире бесплатный архив песенных текстов, аккордов, табулатур и нот


Diet Cig - Harvard - таба, видео

Регистрация Запомнить меня
Войти через:  Facebook Google Twitter Vk Yandex Mail.ru

Diet Cig - Harvard - таба, видео

Печатать
Просмотров: 59
-------------------------------------------------------------------------------
                             Harvard - Diet Cig
-------------------------------------------------------------------------------
Tabbed by:jonahnaymik
Tabbed from: https://www.youtube.com/watch?v=zRfIDbXh3ZI

Tuning: You can play it in drop d and play them as the top three strings barred,
but I think it sounds better with power chords either one though

if you're playing it on acoustic it sounds better plucked to go with the electric effects

 strumming patter is d d u u d u

 intro/verse
e|---------------------------------------------------------------------------]
B|---------------------------------------------------------------------------]
G|---------------------------------------------------------------------------]
D|--5-5-5-5-55--10-10-10-10-1010--7-7-7-7-77--10-10-10-10-1010---------------]
A|--5-5-5-5-55--10-10-10-10-1010--7-7-7-7-77--10-10-10-10-1010---------------]
E|--3-3-3-3-33--8--8--8--8--8-8---5-5-5-5-55--8--8--8--8--8-8----------------]


 "Does it feel better.." same strum pattern but slower
e|---------------------------------------------------------------------------|
B|---------------------------------------------------------------------------|
G|---------------------------------------------------------------------------|
D|---5-5-5-5-55--7-7-7-7-77--9-9-9-9-99--10-10-10-10-1010--------------------|       x2
A|---5-5-5-5-55--7-7-7-7-77--9-9-9-9-99--10-10-10-10-1010--------------------|
E|---3-3-3-3-33--5-5-5-5-55--7-7-7-7-77--8--8--8--8--8-8---------------------|

    that's all, but the chorus is the same as the verse with added distortion

Добавлено: 15.06.2016
Другие материалы по этой песне:
  • Аккорды и текст

Страница создана 15.06.2016
http://primanota.ru/diet-cig/harvard-chords.htm
Привет, Гость.
Предлагаем пройти революционный курс по гитаре.
Подарок от PrimaNota.Ru, забирай!