PrimaNota.ru - самый крупный в мире бесплатный архив песенных текстов, аккордов, табулатур и нот


Diesel Boy - Chin Music - аккорды и текст, таба, видео

Регистрация Запомнить меня
Войти через:  Facebook Google Twitter Vk Yandex Mail.ru

Diesel Boy - Chin Music - аккорды и текст, таба, видео

Печатать
Просмотров: 162
Chin Music
Diesel Boy
intro

-|----13-11----------------------------------11-13-|
-|-11-------11-13-11----------------------11-------|
-|-------------------10----------------10----------|
-|----------------------13----------13-------------|
-|-------------------------13-11-13----------------|
-|-------------------------------------------------|
   verse                                           

-|--------------------4----------------1----4------|
-|--------------------4----------------1----4------|
-|-------8-8---------5--------8-8------2---5-------|
-|-8-8-6-8-8-6---3--66--8-8-6-8-8-6---3---66--8----|
-|-8-8-6-6-6-6---3--6---8-8-6-6-6-6---3---6---8----|
-|-6-6-4-----4---1--4---6-6-4-----4---1---4---6----|
     6 times/            6 times/
chorus                                          
              - many times
-|-------------------------|
-|------------------------|
-|-8-8-----------------8--|
-|-8-8-8--8-8-6---3--6--8--|
-|-6-6-8--8-8-6---3--6--6--|
-|-----6--6-6-4---1--4-----|
                                          
  verse                                           

-|--------------------4-----------------------------|
-|--------------------4-----------------------------|
-|-------8-8---------5--------8-8-------------3-----|
-|-8-8-6-8-8-6---3--66--8-8-6-8-8-6---3--5-6--3-----|
-|-8-8-6-6-6-6---3--6---8-8-6-6-6-6---3--5-6--1-----|
-|-6-6-4-----4---1--4---6-6-4-----4---1--3-4--------|
     6 times/            6 times/
                   - many times
-|--------------|----------------------------|
-|--------------|--------------------------|
-|----------8---|-------6-------------8---|
-|-8--3--6--8---|-8--3--6--6---888-333-6-8---|
-|-8--3--6--6---|-8--3--6--4---888-333-6-6---|
-|-6--1--4------|-6--1--4------666-111-4-----|
  solo                                    

-|--------------------------------------------------------------3----------|--
-|-6-4-3-------------6-4-3-----------3--6346434---3---6346434-6---643------|--
-|-------5-3-2-3-5-3-------5-3-2-3-5------------5---3----------------5323--|--
-|-------------------------------------------------------------------------|--
-|-------------------------------------------------------------------------|--
-|-------------------------------------------------------------------------|--
   
  end                                     

-|-------------------|
-|-------------------|
-|-10---8-8-8-8--8--|
-|-10-6-8-8-8-8--8--|
-|-8--6-6-6-6-6--6--|
-|----4--------------|
Добавлено: 07.12.2013
Другие материалы по этой песне:
  • Аккорды и текст

Страница создана 04.05.2012
http://primanota.ru/diesel-boy/chin-music-chords.htm
Привет, Гость.
Предлагаем пройти революционный курс по гитаре.
Подарок от PrimaNota.Ru, забирай!