PrimaNota.ru - самый крупный в мире бесплатный архив песенных текстов, аккордов, табулатур и нот


Dies Irae - Lion Of Knowledge - текст песни, таба, видео

Регистрация Запомнить меня
Войти через:  Facebook Google Twitter Vk Yandex Mail.ru

Dies Irae - Lion Of Knowledge - текст песни, таба, видео

Печатать
Просмотров: 138
Band: Dies Irae  
Album: Immolated
Song:  Lion of Knowledge
The bands website
http://www.myspace.com/diesiraepl
Copyright (c)  (Metal Mind) (2001)

Transcribed By: Jeffree Pfeifer
Email: controldenied1988@hotmail.com

Im not completely done and not sure about everything completely but feel 
free to send me corrections and help me out tabbing the rest of the solos!

.  - palm mute           /  - slide up to
\  - slide down to       ~  - vibrato
h  - hammer on           b  - Bend
p  - pull off            Suffixes for bend
t  - tap                 f  - full bend    h - half bend
ph - pinched harmonic    q  - quarter bend t - tap bend
*  - see comment         ^  - Hold bend    r release bend
x  - Stuccatto           ~  - vibrato bend
,  - slight palm mute    () - ghost note, sustained note
"  - tremolo note        <> - Trill

Tuning Dropped D?
intro  x2
|-------------------------------------------------------------------|
|-------------------------------------------------------------------|
|--------0--------------------0-------------------------------------|
|------1---1----------------1---1----0------------------------------|
|-1--0---------2-------1--0------------1----------------------------|
|-3----------3---3-----3-----------3-----3--------------------------|

Riff 2 x2
|-------------------------------------------------------------------|
|-------------------------------------------------------------------|
|-------------------------------------------------------------------|
|----------------------6/5---8/6----9-------------------------------|
|-2----3/5-----7/6-----4/3---6/4----7-------------------------------|
|-0----1/3--0--5/4--0------0------0---------------------------------|
            .       .      .      .
cont'd
|-------------------------------------------------------------------|
|-------------------------------------------------------------------|
|-------------------------------------------------------------------|
|----------------------6/5---5/6----6/8-----------------------------|
|-2----3/5-----7/6-----4/3---3/4----4/6-----------------------------|
|-0----1/3--0--5/4--0------0------0---------------------------------|
            .       .      .      .
Riff 3 x2
|-------------------------------------------------------------------|
|-------------------------------------------------------------------|
|-------------------------------------------------------------------|
|-------------------------------------------------------------------|
|--------5--------6-7--------5--------9-8---------------------------|
|-000000-3-000000-4-5-000000-3-000000-7-6---------------------------|
  ......   ......     ......   ......
Cont'd
|-------------------------------------------------------------------|
|-------------------------------------------------------------------|
|-------------------------------------------------------------------|
|-------------------------------------------------------------------|
|--------5--------6-7--------5--------8-9---------------------------|
|-000000-3-000000-4-5-000000-3-000000-6-7---------------------------|
  ......   ......     ......   ......

solo 1 Thats all I know of it

|-------------------------------------------------------------------|
|-------------------------------------------------------------------|
|--0/8--9--8--10-9h10p9----9-12b--12~~------------------------------|
|-----------------------10------------------------------------------|
|-------------------------------------------------------------------|
|-------------------------------------------------------------------|

|-------------------12h13p12--10h12p10----10------------------------|
|----------------13--------------------13----12-13-10-12-12~~-------|
|-------------14----------------------------------------------------|
|-0/8--10--11-------------------------------------------------------|
|-------------------------------------------------------------------|
|-------------------------------------------------------------------|

|-----x4-----|-----------|----x3----|-------------------------------|
|------------|-----------|----------|-------------------------------|
|------------|-----------|----------|-------------------------------|
|------------|-----------|----------|-10-12-13----------------------|
|--10-12-13--|-----------|-10-12-13-|-------------------------------|
|------------|----151515-|----------|-------------------------------|
Backround riff to solo 1 just slightly different x2 (Last time Only)
|--------------------------------------------|--(Last time Only)-----|
|--------------------------------------------|-----------------------|
|--------0--------------------0--------------|-----------------------|
|------1---1----------------1---1----0-------|-----------------------|
|-1--0---------2-------1--0------------1-----|-1---------1-----------|
|-3----------3---3-----3-----------3-----3---|-3---------3-----------|
 
Riff 4                                                
|-------------------------------------------------------------------|
|-------------------------------------------------------------------|
|-------------------------------------------------------------------|
|-------------------------------------------------------------------|
|--------5--------6/5/6--------5--------6/7/6-----------------------|
|-000000-3-000000-4/3/4-000000-3-000000-4/5/4-----------------------|
  ......   ......       ......   ......

|-------------------------------------------------------------------|
|-------------------------------------------------------------------|
|-------------------------------------------------------------------|
|-------------------------------------------------------------------|
|--------5--------8/7/8--------5--------6/8/6-----------------------|
|-000000-3-000000-6/5/6-000000-3-000000-4/6/4-----------------------|

Solo 2 These are just a few certain notes that are from the solo 
Its hard to here the beginning!! Please help!!

|-------------------------------------------------------------------|
|-------------------------------------------------------------------|
|-------------------------------------------------------------------|
|-------------------------------------------------------------------|
|-------------------------------------------------------------------|
|-------------------------------------------------------------------|

|-------------------------------------------------------------------|
|-------------------------------------------------------------------|
|----15-17-18-18-18-18-18~~-----------------------------------------|
|-------------------------------------------------------------------|
|-------------------------------------------------------------------|
|-------------------------------------------------------------------|

|---17-19-20b-20-22-22/24-24-24-24~~--------------------------------|
|-------------------------------------------------------------------|
|-------------------------------------------------------------------|
|-------------------------------------------------------------------|
|-------------------------------------------------------------------|
|-------------------------------------------------------------------|

Solo 3 Thats all I know for that!

|-------------------------------T----------T----------T-------------|
|---------------10-9~--9-10-13-14-9-10-13-16-9-10-13-18-------------|
|------------10-----------------------------------------------------|
|------10-12--------------------------------------------------------|
|----9--------------------------------------------------------------|
|--8----------------------------------------------------------------|

|----------T-----T----------T-----T----------T----------T-----------|
|-9-10-13-16-13-16-9-10-13-14-13-14-9-10-13-16-9-10-13-14-----------|
|-------------------------------------------------------------------|
|-------------------------------------------------------------------|
|-------------------------------------------------------------------|
|-------------------------------------------------------------------|
             Some weird slide
|------------------------------T----------T-------------------------|
|-9-10-13-9-10-13/24?-9-10-13-14-9-10-13-14-------------------------|
|-------------------------------------------------------------------|
|-------------------------------------------------------------------|
|-------------------------------------------------------------------|
|-------------------------------------------------------------------|


END
Добавлено: 30.05.2012
Другие материалы по этой песне:

Страница создана 28.02.2012
http://primanota.ru/dies-irae/lion-of-knowledge-chords.htm
Привет, Гость.
Предлагаем пройти революционный курс по гитаре.
Подарок от PrimaNota.Ru, забирай!