PrimaNota.ru - самый крупный в мире бесплатный архив песенных текстов, аккордов, табулатур и нот


Dierks Bentley - Lot Of Leavin - аккорды и текст, таба, видео

Регистрация Запомнить меня
Войти через:  Facebook Google Twitter Vk Yandex Mail.ru

Dierks Bentley - Lot Of Leavin - аккорды и текст, таба, видео

Печатать
Просмотров: 116
Lot Of Leavin
Dierks Bentley
Dierks Bentley - Lot of Leavin' Lef to Do
Capo 2nd Fret

INTRO LICK 4X's

E-----------------------------|
B--2h3-2----------------------|
G-------2---------------------|
D--------2-h-4br4-2-----------|
A-------half--^--step-bend----|
E-----------------------------|

These old (D)ound
They ain't (A) covered yet

E----------------------------|
B----------------------------|
G--------2-------2-----------|
D----------------------------|
A---3h4(4)--3h4(4)----3b0----|
E----------------------------|
(4)--PICK AGAIN AFTER HAMMERING

There's at least another million (D) miles
Under these (A) old bus treads


E----------------------|
B----------------------|
G---5b5b5b-2-0H2-------|
D----------------------|
A----------------------|
E----------------------|


So if you think I'm gonna settle (D) down
I got (A) news for you

E-----------------------------|
B-----------------------------|
G--------2--------------------|
D-----------------------------|
A---3h4(4)----3b0-------------|
E-----------------------------|
(4)--PICK AGAIN AFTER HAMMERING

I still (A) Do
INTRO LICK 2X's

And as (D) song
Left in this (A) old guitar
E----------------------------|
B----------------------------|
G--------2-------2-----------|
D----------------------------|
A---3h4(4)--3h4(4)----3b0----|
E----------------------------|

This life I'm bound to (D) lead
Ain't for the (A) faint of heart
STEEL PART WRITTEN FOR GUITAR
E---5----------------|
B------8-------------|
G---------pb7r5p-----|
D---------------7----|
A--------------------|
E--------------------|
So, you won't fall for (D) me
If you know what's (A) good for you

E-------------------------|
B--5b-5b-5br2-------------|
G--5b-5b-5br2-------------|
D-------------------------|
A-------------------------|
E-------------------------|
Cause I've still (A) Do
E--------------------------------|
B--------------------------------|
G-----00H2-00H2-------|
D-----00H2-00H2-------|
A----0----0-----0-----0----------|
E--------------------------------|

  Guess The (A) handle
E-------------------------------|
B-------------------------------|
G-----2-2-2-2---2-2-2-2---------|
D-----2-2-2-2---2-2-2-2---------|
A----0---0-----0---0------------|
E-------------------------------|
  So, lovin' me (A) gamble
E-------------------------------|
B-------------------------------|
G-----2-2-2-2---2-2-2-2---------|
D-----2-2-2-2---2-2-2-2---------|
A----0---0-----0---0------------|
E-------------------------------|
  So, be(D) on
  Be (D) loose
  Cause, I've still (A) Do
E-------------------------------------------|
B--2h3-2------------------5b-5b-5b-5br2p0h2-|
G-------2-----------------5b-5b-5b-5br2p0h2-|
D--------2-h-4br4-2-------------------------|
A-------half--^--step-bend------------------|
E-------------------------------------------|

Steel Guitar Solo:
(A)
E----------------------|
B--5b5b--5b5b----------|
G--5b5b--5b5b----------|
D-------7-----7--------|
A----------------------|
E----------------------|


(A)
E---------------------------------------------------------|
B-3p2-----------------------------------------------------|
G----4p2---4p2----------0-------0-------------0---------2-|
D-------4p2---4p2-----------2--------2-----1>2-1>2--------|
A----------------4p0-3h4-3h4-3h4--3h4-4p3p0-------0h3h4p0-|
E---------------------------------------------------------|

Girl, you (D) angel
So, (A) I won't lie
I can love you like the (D) devil
If you (A) wanted me to, tonight
E--3-2--3-2-------------|
B--2-2--2-2-------------|
G--x-x--x-x-------------|
D--2-2--2-2-------------|
A-----------------------|
E--just an A7 chord, then flat the 7th

And we could talk about for(D)ever
For a (A) day or two
E---------------------|
B------8--------------|
G---------pb7r5-7-----|
D----------------7----|
A---------------------|
E---------------------|
But, I've still (A) Do

E---------2-0-------------|
B-7-5-3-2-3-2-------------|
G-7-6-2-2-2-2-------------|
D-7-7-4-2-----------------|
A-9-7---------------------|
E-------------------------|


  Guess The (A) handle
E-------------------------------|
B-------------------------------|
G-----2-2-2-2---2-2-2-2---------|
D-----2-2-2-2---2-2-2-2---------|
A----0---0-----0---0------------|
E-------------------------------|
  So, lovin' me (A) gamble
E-------------------------------|
B-------------------------------|
G-----2-2-2-2---2-2-2-2---------|
D-----2-2-2-2---2-2-2-2---------|
A----0---0-----0---0------------|
E-------------------------------|
  So, be(D) on
  Make (D) loose
  Cause, I've still (A) Do
E----------------------------|
B----------------------------|
G----------------------------|
D----55--44--22----2----0----|
A--0----0---0---3h4--3h4-----|
E----------------------------|
  I've still (A) Do
INTRO LICK AND FADE
TRY THIS IN HERE TOO
E--------------------------------|
B--------------------------------|
G----0----0----0----2------------|
D-1>2--1>2--1>2--3H4--0----------|
A--------------------------------|
E--------------------------------|
Добавлено: 21.03.2014
Другие материалы по этой песне:
  • Аккорды и текст

Страница создана 13.03.2012
http://primanota.ru/dierks-bentley/lot-of-leavin-chords.htm
Привет, Гость.
Предлагаем пройти революционный курс по гитаре.
Подарок от PrimaNota.Ru, забирай!