PrimaNota.ru - самый крупный в мире бесплатный архив песенных текстов, аккордов, табулатур и нот


Dierks Bentley - Good Things Happen - аккорды и текст, таба, видео

Регистрация Запомнить меня
Войти через:  Facebook Google Twitter Vk Yandex Mail.ru

Dierks Bentley - Good Things Happen - аккорды и текст, таба, видео

Печатать
Просмотров: 134
Good Things Happen
Dierks Bentley
Capo 3rd fret

Intro
G       D       Am   C     D     G
---3/5-5/7--------------------------------------|
-3---------7-7-8-107-5---3/5-5-7/8-------------|
------------------------------------7-75-5-54-|
------------------------------------------------|
------------------------------------------------|
------------------------------------------------|

G         D           Am
 The world is cold but I don't care
C         D         G
 When you have flowers in you hair
G     D           Am
 I see color and I hear sound
C           D             G
 And good things happen when you're around

G     D           Am
 I work hard for not much pay
C      D          G
 So I can know you'll be okay
G           D           Am
 'Cause I need to live where love abounds
C           D             G
 And good things happen when you're around

         D     Am
So won't you wait for me
     C
I'll be home soon
D     Am
Wait for me
   C      D
I'll only be a day or two

Solo
G     D          Am         C      D     G
-----------------------------(8-7-5-53)---------------------------|
-------------------------------------------------------------------|
-------------------------------------------------------------------|
-5/7-7/9-7---7-5p4h5-4---------------------2-4-4/54---------------|
-----------5-----------5-5/7-------------3-----------97-7-75-----|
---------------------------------------------------------------5/7-|
 main steel guitar is in ()

G       D       Am         C     D     G
---3/5-5/7--------------(12-10-8-7)----------------------| 
-3---------7-7-8-107-5-------------3/5-5-7/8------------|
--------------------------------------------7-75-5-54--|
---------------------------------------------------------|
---------------------------------------------------------|
---------------------------------------------------------|
main steel guitar is in ()

       D     Am
Won't you wait for me
     C
I'll be home soon
D     Am
Wait for me
   C      D
I'll only be a day or two

G         D           Am
 The world is cold but I don't care
C         D         G
 When you have flowers in you hair
G     D           Am
 I see color and I hear sound
C           D             G   G7
 And good things happen when you're around
C        D             G
 Good things happen when you're around
Добавлено: 28.08.2015
Другие материалы по этой песне:
  • Аккорды и текст

Страница создана 25.04.2012
http://primanota.ru/dierks-bentley/good-things-happen-chords.htm
Привет, Гость.
Предлагаем пройти революционный курс по гитаре.
Подарок от PrimaNota.Ru, забирай!