PrimaNota.ru - самый крупный в мире бесплатный архив песенных текстов, аккордов, табулатур и нот


Dieradiodie - Life Is Beautiful - текст песни, таба, видео

Регистрация Запомнить меня
Войти через:  Facebook Google Twitter Vk Yandex Mail.ru

Dieradiodie - Life Is Beautiful - текст песни, таба, видео

Печатать
Просмотров: 118
Song: Life Is Beautiful (full 8:00 version)
Artist: Dieradiodie
Album: Headstock/Heart-attack

/-Slide Up
-Slide Down
.-palm mute
!-Let ring

Intro Pt. 1
0:00 - 0:12

E--------0------------0-------------2---2--------0---0--------|
B------3---3--------3---3---------3---3---3----3---3---3------|
G----2-------2----2-------2-----4------------4----------------|
D--4------------5---------------------------------------------|
A-------------------------------------------------------------|
D-------------------------------------------------------------|


Verse? First heavy Distortion part
1:20 - 1:43

E--------------------------------------------|
B--------------------------------------------|
G---------------------------9--11/12----7----|
D--4-444--5-555--0-000000---x---x/x-----x----| <4 times>
A--4-444--5-555--0-000000---7---9/10----5----|
D--4-444--5-555--0-000000--------------------|
                   ......


Verse 2 i think? Second distorted part after he sings
4:17 - 4:45

E--------------------------------------------------------|
B--------------------------------------------------------|
G-----------6/7-7-7/9------------9/11-11-11/12--1211-----|
D--0-000000-x/x-x-x/x---5-555555-x/x--x---x/x----xx------|
A--0-000000-4/5-5-5/7---5-555555-7/9--9---9/10--109------|
D--0-000000-------------5-555555-------------------------|

                                                          play these
                                                          together twice

E--------------------------------------------------------| /
B--------------------------------------------------------|
G-----------6/7-7-7/9--97--------------11/12/14----------|
D--0-000000-x/x-x-x/x--xx--5-555555-----x/x /x-----------|
A--0-000000-4/5-5-5/7--75--5-555555-----9/10/12----------|
D--0-000000-----------------5-555555---------------------|

Okay those are the segments of the song that i do know so if you have any corrections send them to:

DarkSilhouette_37@hotmail.com

Tabbed by Kevin Johnston
Добавлено: 13.07.2012
Вам также может быть интересно:
Другие материалы по этой песне:
  • Аккорды и текст

Страница создана 26.06.2012
http://primanota.ru/dieradiodie/life-is-beautiful-chords.htm
Привет, Гость.
Предлагаем пройти революционный курс по гитаре.
Подарок от PrimaNota.Ru, забирай!