PrimaNota.ru - самый крупный в мире бесплатный архив песенных текстов, аккордов, табулатур и нот


Diecast - Perfect Sinner - таба, видео

Регистрация Запомнить меня
Войти через:  Facebook Google Twitter Vk Yandex Mail.ru

Diecast - Perfect Sinner - таба, видео

Печатать
Просмотров: 129
Band: Diecast
Song: Perfect Sinner

Tabber: John Cukras
email: riffreaper@yahoo.com

tuning: Drop C

Intro: Clean
D----------------------------|
A----------------------------|
F----------------------------|
C-5-5---5-5-5----5-5---5-5-5-|
G-3-3---3-3-3----3-3---3-3-3-|
C-----0-------00-----0-------|
pm    .       ..     .

Riff 1:
D-----------------------------------------------------------------------------|
A-----------------------------------------------------------------------------|
F-----------------------------------------------------------------------------|
C-----------------------------------------------------------------------------|
G-10-10---10-10-10----10-10---10-10-10----7-7---7-7-7----7-7---7-7-7----------|
C-10-10-0-10-10-10-00-10-10-0-10-10-10-00-7-7-0-7-7-7-00-7-7-0-7-7-7-00 x's 3-|
pm      .          ..       .          ..     .       ..     .       ..

D----------------------------------------|
A----------------------------------------|
F----------------------------------------|
C----------------------------------------|
G---10-10---10-10-10----10-10---10-10-10-|
C---10-10-0-10-10-10-00-10-10-0-10-10-10-|
pm        .          ..       .


Riff 2:
D-------------------------------------------------------|
A-------------------------------------------------------|
F-------------------------------------------------------|
C-------------------------------------------------------|
G-000-0-777-000-0-777--000-0-101010-000-0-101010--------|
C-000-0-777-000-0-777--000-0-101010-000-0-101010  x's 2-|
pm... .     ... .      ... .        ... .

Intro

Riff 1

Riff 2

End:
D------------------------------------------------|
A------------------------------------------------|
F------------------------------------------------|
C------------------------------------------------|
G-000-0-777-000-0-777--10-10-101010-10-10-101010-|
C-000-0-777-000-0-777--10-10-101010-10-10-101010-|
pm... .     ... .
Добавлено: 19.04.2012
Другие материалы по этой песне:
  • Аккорды и текст

Страница создана 19.04.2012
http://primanota.ru/diecast/perfect-sinner-chords.htm
Привет, Гость.
Предлагаем пройти революционный курс по гитаре.
Подарок от PrimaNota.Ru, забирай!