PrimaNota.ru - самый крупный в мире бесплатный архив песенных текстов, аккордов, табулатур и нот


Diecast - Fade Away - текст песни, таба, видео

Регистрация Запомнить меня
Войти через:  Facebook Google Twitter Vk Yandex Mail.ru

Diecast - Fade Away - текст песни, таба, видео

Печатать
Просмотров: 288
                               Fade away
                                  Diecast
                                    internal revolutions
Tuning: C,G,C,F,A,D
       I think (im still learning notes)
         But in other words drop C

. = palm mute
b = bend
Intro
1-----------------------------------------------------------------------------|
2-----------------------------------------------------------------------------|
3-----------------------------------------------------------------------------|
4---------7-----7-5-----8-----5---------8-7-8-7---------7-----7-5---------7-7-|
5---------5-----5-5-----5-----5---------5-5-5-5---------5-----5-5---------8-8-|
6-0-0-0-0---0-0-----0-0---0-0---0-0-0-0---------0-0-0-0---0-0-----0-0-0-0-----|
  . . . .   . .     . .   . .   . . . .         . . . .   . .     . . . .
1----------------------------------------------------------------------------|
2----------------------------------------------------------------------------|
3----------------------------------------------------------------------------|
4-7-7-7-5-5-5-------------------------- And repeat once more-----------------|
5-8-8-8-7-7-7---------------I just found out about this band so il have more-|
6----------------------------------------------------------------------------|

Intro solo:
1-----------------------------------------------------------------------------|
2-----------------------------------------------11-11-10-10-11-11-15-13-11-10-|
3-------------------------10-10-9-9-10-10-12-12-------------------------------|
4-------------------12-12-----------------------------------------------------|
5-----13-12-10-12~------------------------------------------------------------|
6-12~-------------------------------------------------------------------------|

1-17---------------17------------------15---------------15--------------17b18-|
2---18-15----15-18----18-15----15-18------17-15---15-17----17-15---17-15------|
3---------14----------------14------------------17---------------17-----------|
4-----------------------------------------------------------------------------|
5-----------------------------------------------------------------------------|
6-----------------------------------------------------------------------------|

1-15-15b17-------------------------------------------------------------------|
2---------18-18b20-17-17b18---15~--------------------------------------------|
3---------------------------17-----------------------------------------------|
4----------------------------------------------------------------------------|
5----------------------------------------------------------------------------|
6----------------------------------------------------------------------------|

                   The solo isnt my best cuz i gatta go ta bed!
                                   Its 4:30 AM
I will b bak with more
Добавлено: 15.04.2012
Другие материалы по этой песне:

Страница создана 09.03.2012
http://primanota.ru/diecast/fade-away-chords.htm
Привет, Гость.
Предлагаем пройти революционный курс по гитаре.
Подарок от PrimaNota.Ru, забирай!