PrimaNota.ru - самый крупный в мире бесплатный архив песенных текстов, аккордов, табулатур и нот


Diecast - Desensitized - аккорды и текст, таба, видео

Регистрация Запомнить меня
Войти через:  Facebook Google Twitter Vk Yandex Mail.ru

Diecast - Desensitized - аккорды и текст, таба, видео

Печатать
Просмотров: 141
Desensitized
Diecast
Band: DiECAST
Album:Day of Reckoning
Song: Desensitized

Transcribed by:        Chris Bumeniuk
Email: father_death_666@hotmail.com

Tuning: (C G C)
strings 1-5 - 1 step down
string    6 - 2 steps down

Keys:
 /  - slide
 ___ - palm mute
  b  - bend
  h  - hammer on


INTRO:

|-----------------|     |---------------|
|-----------------|     |---------------|
|-----------------|     |-6-5-----------|
|-87-------------|     |-6-5-6---------|
|-65-3-5-6-5-3-5-|     |-4-3-6---------|
|-----3-5-6-5-3-5-| 3x  |-----6--000000-| 3x
      ___________                ______

|-----------------|     |-------------|
|-----------------|     |-------------|
|-----------------|     |-6-5---------|
|-87-------------|     |-6-5-6-5-----|
|-65-3-5-6-5-3-5-|     |-4-3-6-5-----|
|-----3-5-6-5-3-5-| 3x  |-----6-5-3-5-|
      ___________                 ___


VErSE:

|---------------|     |--------------|
|---------------|     |--------------|
|---------------|     |--------------|
|---------3-2-3-|     |--------5-3-2-|
|---------3-2-3-|     |--------5-3-2-|
|-0-0--00-3-2-3-| 3x  |0-0--00-5-3-2-| 3x
  _______              _______

|---------------|     |----------------|
|---------------|     |----------------|
|---------------|     |----------------|
|---------3-2-3-|     |--------3-2-3-0-|
|---------3-2-3-|     |--------3-2-3-0-|
|-0-0--00-3-2-3-| 3x  |0-0--00-3-2-3-0-|
  _______              _______

(Gtr 2 comes in w/this every so often)
|--------|
|-13/15--|
|--------|
|--------|
|--------|
|--------|


CBoRUS:

|-----------------|     |---------------|
|-----------------|     |---------------|
|-----------------|     |-6-5-----------|
|-87-------------|     |-6-5-6---------|
|-65-3-5-6-5-3-5-|     |-4-3-6---------|
|-----3-5-6-5-3-5-| 3x  |-----6--000000-|
      ___________                ______

|-----------------|     |-------------|
|-----------------|     |-------------|
|-----------------|     |-6-5---------|
|-87-------------|     |-6-5-6-5-----|
|-65-3-5-6-5-3-5-|     |-4-3-6-5-----|
|-----3-5-6-5-3-5-| 3x  |-----6-5-3-5-|
      ___________                 ___


VErSE


INTRO


INTErLUDE:

|------------------------------------------------------------|
|------------------------------------------------------------|
|----------------------------------------------5-------------|
|----------------------------------------------5-------------|
|-----------5b----------------------------3b---3-------------|
|-0-0-0----------0-0-0-----6b---0-0-0----------3-------------|
  _____          _____          _____

|------------------------------------------------------------|
|------------------------------------------------------------|
|------------------------------------------------------------|
|------------------------------------------------------------|
|-----------5b----------------------------3b-----------------|
|-0-0-0----------0-0-0-----6b---0-0-0----------0-0-0---0-3-0-| 3x
  _____          _____          _____          _____________

|------------------------------------------------------------|
|------------------------------------------------------------|
|------------------------------------------------------------|
|------------------------------------------------------------|
|-----------5b------------(6b)------------3b-----------------|
|-0-0-0-0-0------0-0-0-----6b---0-0-0----------0-0-0---0-3-0-|
  _________      _____          _____          _____________

|------------------------------------------------------------|
|------------------------------------------------------------|
|------------------------------------------------------------|
|------------------------------------------------------------|
|-----------5b------------(6b)------------3b-----------------|
|-0-0-0----------0-0-0-----6b---0-0-0----------0-0-0---0-3-0-|
  _____          _____          _____          _____________

|------------------------------------------------------------|
|------------------------------------------------------------|
|------------------------------------------------------------|
|------------------------------------------------------------|
|-----------5b----------------------------3b-----------------|
|-0-0-0----------0-0-0-----6b---0-0-0----------0-0-0---0-3-0-|
  _____          _____          _____          _____________

|-----------------------------------|
|-----------------------------------|
|-----------------------------------|
|-----------------------------------|
|-----------5b----------------------|
|-0-0-0----------0-0-0-----6b---0-0-|
  _____          _____          ___


CBoRUS:

|-----------------|     |---------------|
|-----------------|     |---------------|
|-----------------|     |-6-5-----------|
|-87-------------|     |-6-5-6---------|
|-65-3-5-6-5-3-5-|     |-4-3-6---------|
|-----3-5-6-5-3-5-| 3x  |-----6--000000-| 3x
      ___________                ______


|-------|
|-------|
|-6-6-6-|
|-6-6-6-|
|-4-4-4-|
|-------|


OUTRO: (fades out)

|----------------|     |-------------|
|----------------|     |-------------|
|----------------|     |-------------|
|-1-0--0-5h6-53-|     |---6----63--|
|-1-0--0-5h6-53-|     |---4----63--|
|-1-0--0-5h6-53-| 3x  |-0----0-63--|
Добавлено: 09.08.2013
Другие материалы по этой песне:
  • Аккорды и текст

Страница создана 24.03.2012
http://primanota.ru/diecast/desensitized-chords.htm
Привет, Гость.
Предлагаем пройти революционный курс по гитаре.
Подарок от PrimaNota.Ru, забирай!