PrimaNota.ru - самый крупный в мире бесплатный архив песенных текстов, аккордов, табулатур и нот


Die Toten Hosen - Was Z?hlt - таба, видео

Регистрация Запомнить меня
Войти через:  Facebook Google Twitter Vk Yandex Mail.ru

Die Toten Hosen - Was Z?hlt - таба, видео

Печатать
Просмотров: 98
-------------------------------------------------------------------------------
                                     WAS ZAEHLT (Unplugged) - Die Toten Hosen

        From the Album "Nur zu Besuch: Unplugged im Wiener Burgtheater"
-------------------------------------------------------------------------------
Tabbed by: JonasH.

From their famous Unplugged Concert. Should be very accurate.

-------------------------------------------------------------------------------

Intro:

e|--------------------------------------------------------------6h7----------|
B|-----------------------------------------------------------------6h7-------|
G|----------------------------6------------------4-4-4-4p3-3-3--------7h8----|
D|-6h8-8-8-8--8-8-8-8p6-6s4-4----4-4-4-4s3-3-3-3-------------------------6h8-|
A|---------------------------------------------------------------------------|
E|---------------------------------------------------------------------------|


Riff I (0:11):

e|---------------------------------------------------------------------------|
B|---------------------------------------------------------------------------|
G|----8-8-8----------------6----------------4-4-4-4p3-3----------------------|
D|-6h8------8-8-8-8p6-6s4-4--4-4-4-4s3-3-3-3------------4-4-4-4p3-3-3-3s1-1s3|
A|---------------------------------------------------------------------------|
E|---------------------------------------------------------------------------|


Riff II (0:22)

e|------------------------------------------------------------6h7------------|
B|---------------------------------------------------------------6h7---------|
G|-----8-8-8------------------6------------------4-4-4-4p3-3--------7h8------|
D|-6h8--------8-8-8-8p6-6p4-4----4-4-4-4s3-3-3-3-----------------------6h8---|
A|---------------------------------------------------------------------------|
E|---------------------------------------------------------------------------|


Riff I (0:32)


Pre-Chorus I (0:43):

   d#   B    g#  d#         d#         B          g#    d#
e|------------------------|--------------------------------------------------|
B|-7-------------7--------|-7---------------------------7--------------------|
G|-8----8----4---8--10-11-|-8--10-11---8--10-11---4-----8--------------------|
D|-8----9----6---8--8--8--|-8--8--8----9----------6-----8--------------------|
A|-6----9----6---6--6--6--|-6--6--6----9--9--9----6-----6--------------------|
E|------7----4------------|------------7--7--7----4--------------------------|


Riff IIa (1:03):

e|------------------------------------------------------------6h7------------|
B|---------------------------------------------------------------6h7---------|
G|---------8------------------6------------------4-4-4-4p3-3--------7h8------|
D|-6h8-8-8----8-8-8-8p6-6p4-4----4-4-4-4s3-3-3-3-----------------------6h8---|
A|---------------------------------------------------------------------------|
E|---------------------------------------------------------------------------|


Pre-Chorus II (1:13):

   d#   B    g#  d#    d#   B    g#   d#
e|-------------------|-------------------------------------------------------|
B|-7-------------7---|-7--------------7--------------------------------------|
G|-8----8----4---8---|-8----8----4----8--------------------------------------|
D|-8----9----6---8---|-8----9----6----8--------------------------------------|
A|-6----9----6---6---|-6----9----6----6--------------------------------------|
E|------7----4-------|------7----4-------------------------------------------|


Chorus (1:34):

   d#   B    C#   A# B    d#   B    C#   A# B    d#   B   g#   d#
e|----------------------|----------------------|-----------------------------|
B|-7---------6----------|-7---------6----------|-7-------------7-------------|
G|-8----8----6----7--8--|-8----8----6----7--8--|-8----8---4----8-------------|
D|-8----9----6----8--9--|-8----9----6----8--9--|-8----9---6----8-------------|
A|-6----9----4----8--9--|-6----9----4----8--9--|-6----9---6----6-------------|
E|------7---------6--7--|------7---------6--7--|------7---4------------------|


Riff IIa (2:04)


Pre Chorus II (2:14)


Chorus (2:34)


Pre Chorus II (3:04)


Chorus II (3:24):

   d#   B    C#   A# B    d#   B    C#   A# B    d#   B   C#   A# B    d#
e|----------------------|----------------------|---------------------|-------|
B|-7---------6----------|-7---------6----------|-7--------6----------|-7-----|
G|-8----8----6----7--8--|-8----8----6----7--8--|-8----8---6----7--8--|-8-----|
D|-8----9----6----8--9--|-8----9----6----8--9--|-8----9---6----8--9--|-8-----|
A|-6----9----4----8--9--|-6----9----4----8--9--|-6----9---4----8--9--|-6-----|
E|------7---------6--7--|------7---------6--7--|------7--------6--7--|-------|


************************************

| s   slide
| h   hammer-on
| p   pull-off

************************************
Добавлено: 21.03.2012
Другие материалы по этой песне:

Страница создана 28.02.2012
http://primanota.ru/die-toten-hosen/was-zhlt-chords.htm
Привет, Гость.
Предлагаем пройти революционный курс по гитаре.
Подарок от PrimaNota.Ru, забирай!