PrimaNota.ru - самый крупный в мире бесплатный архив песенных текстов, аккордов, табулатур и нот


Die Toten Hosen - Viva La Revolution - текст песни, таба, видео

Регистрация Запомнить меня
Войти через:  Facebook Google Twitter Vk Yandex Mail.ru

Die Toten Hosen - Viva La Revolution - текст песни, таба, видео

Печатать
Просмотров: 198
00:55 09.02.02
Song: Viva la Revolution
Band: Die Toten Hosen
Album: Opium f?r's Volk
FROM:

                              VIVA LA REVOLUTION

Intro / Riff (w/distortion, w/several effects and pedals):

    Em  G  A         Em    G    A     Em* G  A C D       Em  G  A  C D
e|---------------------------------------------------------------------------|
b|---------------------------------------------------------------------------|
g|------------------------------14~~~-/16~~~~~~~-\14/16~~~~~-b(18)-r16~~~~~~-|
d|-/14~~~~~~~--17-14~~~~~~~~-17----------------------------------------------|
a|---------------------------------------------------------------------------|
e|---------------------------------------------------------------------------|
                                      -drums starts-

* The E-guitar strum this chord one time

Chords played with acoustic guitar:

      Em*                     G                     A             C     D
Jeden Morgen ein Drei-Minuten-Fr?hst?cksei und eine Runde mit dem Hund.
Em*               G            A                C
P?nktlich bei der Arbeit sein, p?nktlich wieder Schlu?.
fill#1  F                  Am        F                 Am
Jeden   Tag in die gleiche Richtung, ohne zu fragen wieso.
F                       C            G                    fill#1 end
Jede Nacht dieselben Gesichter in denselben Fernseh-Shows.

fill#1:
e|-----------------------------------------------------------------------------------------|
b|-----------------------------------------------------------------------------------------|
g|--------------------14~~~~~~-------------------------------------------------------------|
d|-/15~~~~~~-13~~~~~~----------17~~~~~~-15~~~~~~-12~~~~~~-10~~~~~~-14~~~~~~~~~~(let ring)--|
a|-----------------------------------------------------------------------------------------|
e|-----------------------------------------------------------------------------------------|
    Tag...   Richtung ohne..   wieso..  Nacht..  Gesichter selben..Shows

Niemals w?rden wir so enden, haben wir uns damals gesagt.
Keine Lust auf diesen K?fig mit Regeln wie Eisenstangen.
Es war ein riesengro?er Aufschrei, wir waren dagegen und nie daf?r.
Und damit endlich etwas passiert, ritzten wir in jede Schei?haust?r:

C*          Em*         Am*                  fill#2
Viva la Revolution - es lebe die Revolution
C*          Em*                  Am*               fill#2
Viva la Revolution - es gibt ein Leben vor dem Tod

fill#2 (e-guitar):
D-----
A-0-2-
E-----

Play Riff

Wir wollten diese Welt ver?ndern und liefen erstmal zum Friseur.
Denn irgend jemand hatte mal gesagt, da? das Aussehen wichtig w?r.
Und dann warfen wir uns in den Kampf, wie die Krieger von Babylon.
Jeder glaubte an was anderes, weil keiner etwas verstand.

Viva la Revolution - es lebe die Revolution
Viva la Revolution - es gibt ein Leben vor dem Tod
Viva la Revolution - Ohh-ho-ho.
Viva la Revolution - Ohh-ho-ho.

Solo:
e|----------------------------------------------|
b|----------------------------------17~~-15~~\--|
g|-/16~~~~~~~~-b(17)~~~~~~-r16~~~~~-------------|
d|----------------------------------------------|
a|----------------------------------------------|
e|----------------------------------------------|

e|--------------------------------------------------------|
b|--13-15--13-15--13-17~~-16~~--13-15--13-17--19~~~-17~~~-|
g|--------------------------------------------------------|
d|--------------------------------------------------------|
a|--------------------------------------------------------|
e|--------------------------------------------------------|

Der alte Marx w?r sicher stolz auf uns und unseren Heiligen Krieg.
Denn es ging um unsere Freiheit Gott sei Dank haben wir gesiegt.
Und heute k?nnen wir w?hlen zwischen SPD und CDU.
Zwischen RTL und ZDF f?r Pepsi oder Coke.

Viva la Revolution - es lebe die Revolution.
Viva la Revolution - es gibt ein Leben vor dem Tod.
Viva la Revolution - es lebe die Revolution.
Dieses "Viva la Revolution" war leider auch nur Opium.

Viva la Revolution. Wohh-ho-ho.
Viva la Revolution. Wohh-ho-ho.

Outro:

------------------------------------------------------|
------------------------------------------------------|
------------------------------------------------------|
---14~~~~~~~~~~~~~~~~~~~~~~~~~~~~~~~~~~~\-------------|
-----(mixed with several pedals and effects)----------|
------------------------------------------------------|
Добавлено: 13.05.2012
Другие материалы по этой песне:

Страница создана 13.05.2012
http://primanota.ru/die-toten-hosen/viva-la-revolution-chords.htm
Привет, Гость.
Предлагаем пройти революционный курс по гитаре.
Подарок от PrimaNota.Ru, забирай!