PrimaNota.ru - самый крупный в мире бесплатный архив песенных текстов, аккордов, табулатур и нот


Die Toten Hosen - Should I Stay Or Should I Go - текст песни, бас-таба, видео

Регистрация Запомнить меня
Войти через:  Facebook Google Twitter Vk Yandex Mail.ru

Die Toten Hosen - Should I Stay Or Should I Go - текст песни, бас-таба, видео

Печатать
Просмотров: 232
Intro: 2 bars only guitar

Verse:
4x          1x         1x         1x         1x
G----------|----------|----------|----------|----------|
D----------|----------|----------|----------|----------|
A-55--235p-|----------|-55--235p-|----------|-55--235p-|
E---33-----|-3311113p-|---33-----|-5555555p-|---33-----|

2x          1x         1x         1x         1x
G----------|----------|----------|----------|----------|
D----------|----------|----------|----------|----------|
A-55--235p-|----------|-55--235p-|----------|-55--235p-|
E---33-----|-3311113p-|---33-----|-5555555p-|---33-----|

Chorus:
2x
G-----------75---|----------------|------------75---|----------------------|
D----4567-----7--|----------------|----4567------7--|----75----------------|
A-555----555---9-|-------------53-|-555----555----9-|-000--7-0000p-55--235-|
E----------------|-333111133331---|-----------------|-------9--------33----|

Verse 2: 2x
2x          1x         1x         1x         1x
G----------|----------|----------|----------|----------|
D----------|----------|----------|----------|----------|
A-55--235p-|----------|-55--235p-|----------|-55--235p-|
E---33-----|-3311113p-|---33-----|-5555555p-|---33-----|

Chrous 2:
2x
G-----------75---|----------------|------------75---|----------------|
D----4567-----7--|----------------|----4567------7--|----------------|
A-555----555---9-|-------------53-|-555----555----9-|-00000000000000-|
E----------------|-333111133331---|-----------------|----------------|

2x
G-----------75---|----------------|------------75---|----------------------|
D----4567-----7--|----------------|----4567------7--|----75----------------|
A-555----555---9-|-------------53-|-555----555----9-|-000--7-0000p-55--235-|
E----------------|-333111133331---|-----------------|-------9--------33----|
Добавлено: 30.07.2012
Другие материалы по этой песне:

Страница создана 06.03.2012
http://primanota.ru/die-toten-hosen/should-i-stay-or-should-i-go-chords.htm
Привет, Гость.
Предлагаем пройти революционный курс по гитаре.
Подарок от PrimaNota.Ru, забирай!