PrimaNota.ru - самый крупный в мире бесплатный архив песенных текстов, аккордов, табулатур и нот


Die Toten Hosen - Sekt Oder Selters - аккорды и текст, видео

Регистрация Запомнить меня
Войти через:  Facebook Google Twitter Vk Yandex Mail.ru

Die Toten Hosen - Sekt Oder Selters - аккорды и текст, видео

Печатать
Просмотров: 67
Новый альбом группы 'Черный Кузнец' по культовому сериалу 'Сверхъестественное'!
Sekt Oder Selters
Die Toten Hosen
Die Toten Hosen - Sekt oder Selters


% Intro & Melodie während der Strophen: 

  |||--> Ab hier wiederholen für Strophen
e|---------------------------------------------------------------------------|
B|---------------------------------------------------------------------------|
G|---------------------------------------------------------------------------|
D|----2-2-2---4-1--------------------------------2---------------------------|
A|--2-------2-----2-2-2-2-3-2-0---0----------------2-3-3-2-0---0-------------|
E|------------------------------3---3-2-2-3-2--0-------------3---3-2-2-3-4---|

e|---------------------------------------------------------------------------|
B|---------------------------------------------------------------------------|
G|------------------------------2--------------------------------------------|
D|----2-2-3-2-0---0---------------2-3-2-0---0--------------------------------|
A|--0-----------3---3-2-2-3-2-0-----------3---3-2-2--------------------------|
E|--------------------------------------------------3-2-0--------------------|


[Strophe 1]

Em       C           G   G/F#
Frisch rasiert und gekämmt
Em      C       G   G/F#
Und ein weisses Hemd.
   Am             F         C   C/H
Du stehst traurig vor dem Altar
Am               F      C   C/H
Und du sagst für immer: Ja!
     Em          C          G   G/F#
Doch du möchtest sehr gerne fort,
Em           C           G   G/F#
Weit weg von diesem Schafott!
        Am           F          C   C/H
Eng wie Handschellen sitzt dein Ring
    Am            F                C   C/H
Wie schnell deine schönste Zeit verging.
Em            C        G   G/F#
Du hattest es nie so gemeint,
    Em             C          G   G/F#
Auf einmal ist ihr Bauch aufgekeimt.
            Am       F       C   C/H 
Du hast ein langes Gesicht gemacht
         Am            F      C    C/H  
Und dein Kegelklub hat laut gelacht.

Em C Em C Em C Em C


[Refrain]

Am
Nie mehr fremden Mdchen winken,
F
Nie mehr mit den Jungens trinken,
D                                C  H5 A5 G5 F5 E5
Aller Sekt wird nur noch Selters sein!
Am
Nie mehr fremden Mdchen winken,
F
Nie mehr mit den Jungens trinken,
D                                C  H5 A5 G5 F5 E5
Aller Sekt wird nur noch Selters sein!


[Strophe 2]

Em             C             G        G/F#
Schwiegervater sagt, du bist kein Mann,
               Em            C      G   G/F#
Er bringt dich schon auf die rechte Bahn.
        Am         F               C   C/H
Ist die lästige Verwandschaft erst weg
       Am                F        C    C/H
Ist es bald dein Pansen, der dich quält!
             Em         C      G    G/F#
Wie wirst du diesen Tag noch bereuen,
              Em      C      G     G/F#
Du wirst dich niemals wieder freuen!
             Am            F      C   C/H
Sie gibt dir einen langen, nassen Kuss,
       Am            F              C   C/H
Wie du ihn von heute täglich dulden musst!

Em C Em C Em C Em C


[Refrain]

Am
Nie mehr fremden Mdchen winken,
F
Nie mehr mit den Jungens trinken,
D                                C  H5 A5 G5 F5 E5
Aller Sekt wird nur noch Selters sein!
Am
Nie mehr fremden Mdchen winken,
F
Nie mehr mit den Jungens trinken,
D                                C  H5 A5 G5 F5 E5
Aller Sekt wird nur noch Selters sein!

Am F Am F Em C Em C 


[Refrain]

Am
Nie mehr fremden Mdchen winken,
F
Nie mehr mit den Jungens trinken,
D                                C  H5 A5 G5 F5 E5
Aller Sekt wird nur noch Selters sein!

Am F C C/H   Am
Добавлено: 11.02.2018
Другие материалы по этой песне:
  • Аккорды и текст

Страница создана 07.05.2012
http://primanota.ru/die-toten-hosen/sekt-oder-selters-chords.htm
Привет, Гость.
Предлагаем пройти революционный курс по гитаре.
Подарок от PrimaNota.Ru, забирай!