PrimaNota.ru - самый крупный в мире бесплатный архив песенных текстов, аккордов, табулатур и нот


Die Toten Hosen - Ich Bin Die Sehnsucht In Dir - текст песни, таба, видео

Регистрация Запомнить меня
Войти через:  Facebook Google Twitter Vk Yandex Mail.ru

Die Toten Hosen - Ich Bin Die Sehnsucht In Dir - текст песни, таба, видео

Печатать
Просмотров: 169
So. hier dann nochma der komplette song mit solo und fehlendem teil...

Song: Ich Bin Die Sehnsucht In Dir
Band: Die Toten Hosen


Tuning: 1 step down (DGCFAD)

Riff1a)
D-----------------------------------------------|
A-----------------------------------------------|
F-------4-----2-------2-------------------------|
C-----2-----2-------2----------6----------------|
G---2-----3-----3-4-----4-3-/7---7--------------|
D-0---------------------------------------------|

Riff1b)
D-------------------------------0---------------|
A-----------------------------4-----------------|
F-------4-----2-------2-----4-------------------|
C-----2-----2-------2-----5---------------------|
G---2-----3-----3-4-----6-----------------------|
D-0---------------------------------------------|

Riff2)
D-----------------------------------------------|
A------8---------------7-----5------------------|
F------------7----------------------------------|
C----9-----9-----9---7-----7--------------------|
G-/7-----6-----6---5-----4----------------------|
D-----------------------------------------------|

Riff3)
D-----------------------------------------------|
A----------------------------5------------------|
F-----9----9/12------5-5-----X------------------|
C---9-9----9/12----5-5-5---7-7------------------|
G-7------7--/10--3-----3---7-7------------------|
D------------------------3/5-5------------------|

I think you should be able to play these riffs in the correct order.

Chorus part 1: (Played over F - C* - G* Chords I'm not sure which chords they are exactly...)
a)
D-----------------------------------------------|
A---------b--r----------------------------------|
F---7-9-9/(10)\9-7------------------------------|
C------------------10---------------------------|
G-----------------------------------------------|
D-----------------------------------------------|

b)
D-----------------------------------------------|
A---------b--r----------------------------------|
F---7-9-9/(10)\9--------------------------------|
C----------------7------------------------------|
G-----------------------------------------------|
D-----------------------------------------------|

c)
D-----------------------------------------------|
A---------b--r----------------------------------|
F---7-9-9/(10)\9--------------------------------|
C----------------7--7-7/10----------------------|
G-----------------------------------------------|
D-----------------------------------------------|

Bridge: 1xa) 1xb) 1xa) 1xc)

Chorus part 2(with distortion):
D-----------------------------------------------|
A-----------------------------------13-13-13-13-|
F--9-9-9-9--x-9-9-9-9-9-9--x-10-10--12-12-12-12-|
C--9-9-9-9--x-9-9-9-9-9-9--x-10-10--10-10-10-10-|
G--7-7-7-7--x-7-7-7-7-7-7--x-10-10--------------|
D-----------------------------------------------|

D-----------------------------------------------|
A-x-13-13-13-13-13-13--x-10-10------------------|
F-x-12-12-12-12-12-12--x-9--9-------------------|
C-x-10-10-10-10-10-10--x-7--7-------------------|
G-----------------------------------------------|
D-----------------------------------------------|

Middlepart:
D-----------------------------------------------|
A-------13-------12-------------12------10------|
F-----------------------------------------------|
C----14-------14-------14----12------12------12-|
G-12-------11-------11----10-------9-------9----|
D-----------------------------------------------|

Solo:
D-----------------------------------------------|
A-----------------------------------------------|
F-----------/-b-\--------------------9---8------|
C-------7-9-(10)-9-7----------7-9-10---9--------|
G-3/7-7--------------8--3/7-7-------------------|
D-----------------------------------------------|

And the song ends with an E5 chord I think like this

D----
A-5*-
F-4--
C-2--
G-2--
D-0--

*not sure if this note is played...

For any comments, fanpost, whatever mail to DerSuperheldDerMetalwelt@yahoo.de and feel free to rate my tab


Tablature Legend
----------------
 h   - hammer-on
 p   - pull-off
 b   - bend
 pb  - pre-bend
 r   - bend release (if no number after the r, then release immediately)
 /\  - slide into or out of (from/to "nowhere")
 s   - legato slide
 S   - shift slide
  - natural harmonic
[n]  - artificial harmonic
n(n) - tapped harmonic
 ~   - vibrato
 tr  - trill
 T   - tap
 TP  - trem. picking
 PM  - palm muting
\n/  - tremolo bar dip; n = amount to dip
 \n  - tremolo bar down
 n/  - tremolo bar up
/n\  - tremolo bar inverted dip
 =   - hold bend; also acts as connecting device for hammers/pulls
 <>  - volume swell (louder/softer)
 x   - on rhythm slash represents muted slash
 o   - on rhythm slash represents single note slash
Добавлено: 09.04.2012
Другие материалы по этой песне:

Страница создана 09.04.2012
http://primanota.ru/die-toten-hosen/ich-bin-die-sehnsucht-in-dir-chords.htm
Привет, Гость.
Предлагаем пройти революционный курс по гитаре.
Подарок от PrimaNota.Ru, забирай!