PrimaNota.ru - самый крупный в мире бесплатный архив песенных текстов, аккордов, табулатур и нот


Die Mannequin - Suffer - таба, видео

Регистрация Запомнить меня
Войти через:  Facebook Google Twitter Vk Yandex Mail.ru

Die Mannequin - Suffer - таба, видео

Печатать
Просмотров: 87
Авторы: Care Failure

          Suffer - Die Mannequin - Fino + Bleed

Tabbed by: MCfromTMP

Tuning: D Tuning


Intro     (0:00)
          hey    hey    hey    hey     hey   hey
D|--------------------------------------------------------------------|
A|--------------------------------------------------------------------|
F|6-6-----------2-2-------------5-5-------------2-2-------4/5-5-5-4-4-|
C|6-6-4~--4-2-4-2-2-2-4~--4-2-4-5-5-2-4~--4-2-4-2-2-2-4~--4/5-5-5-4-4-|
G|4-4-4~--4-2-4-0-0-2-4~--4-2-4-3-3-2-4~--4-2-4-0-0-2-4~--2/3-3-3-2-2-|
D|----2~--2-0-2-----0-2~--2-0-2-----0-2~--2-0-2-----0-2~--------------|


Verse 1   (0:07)
      you're not my regular nurse, i guess i gotta get hurt
  i know for better or worse, (can't take another day)
D|----------------------------------------------------------------|
A|----------------------------------------------------------------|
F|----------2-2-------------5-5-------------2-2-------4/5-5-5-4-4-|
C|4---4-2-4-2-2-2-4---4-2-4-5-5-2-4---4-2-4-2-2-2-4---4/5-5-5-4-4-|
G|4---4-2-4-0-0-2-4---4-2-4-3-3-2-4---4-2-4-0-0-2-4---2/3-3-3-2-2-|
D|2---2-0-2-----0-2---2-0-2-----0-2---2-0-2-----0-2---------------|
      * * * * * * *   * * * * * * *   * * * * * * *


          (0:14)
  revenge of the lobotomy ladies, while we realize our fate
  we make a hospital break, (& make our getaway) 
D|----------------------------------------------------------------|
A|----------------------------------------------------------------|
F|----------2-2-------------5-5-------------2-2-------4/5-5-5-4-4-|
C|4~--4-2-4-2-2-2-4~--4-2-4-5-5-2-4~--4-2-4-2-2-2-4~--4/5-5-5-4-4-|
G|4~--4-2-4-0-0-2-4~--4-2-4-3-3-2-4~--4-2-4-0-0-2-4~--2/3-3-3-2-2-|
D|2~--2-0-2-----0-2~--2-0-2-----0-2~--2-0-2-----0-2~--------------|


Pre Chorus 1 (0:21)
  neurotic        & you bought it  by-product of the psychotic
D|----------------------------------------------------------------|
A|----------------------------------------------------------------|
F|7-7-7-7-7-7-7-7-4-4-4-4-4-4-4-4---------------------------------|
C|7-7-7-7-7-7-7-7-4-4-4-4-4-4-4-4-4-4-4-4-4-4-4/6-7-7-7-7-7-7-7-7-|
G|5-5-5-5-5-5-5-5-2-2-2-2-2-2-2-2-4-4-4-4-4-4-4/6-7-7-7-7-7-7-7-7-|
D|--------------------------------2-2-2-2-2-2-2/4-5-5-5-5-5-5-5-5-|


          (0:28)
  & tonight we're renegades 
D|------------------------|
A|------------------------|
F|7-7-7-7-7-7-7-7-9-9-9-9-|
C|7-7-7-7-7-7-7-7-9-9-9-9-|
G|5-5-5-5-5-5-5-5-7-7-7-7-|
D|------------------------|
                  * *   * 


Chorus 1  (0:31)
      get away        and away        get away before we really suffer
D|--------------------------------------------------------------------|
A|--------------------------------------------------------------------|
F|6-6-----------2-2-------------5-5-------------2-2-------4/5-5-5-4-4-|
C|6-6-4~--4-2-4-2-2-2-4~--4-2-4-5-5-2-4~--4-2-4-2-2-2-4~--4/5-5-5-4-4-|
G|4-4-4~--4-2-4-0-0-2-4~--4-2-4-3-3-2-4~--4-2-4-0-0-2-4~--2/3-3-3-2-2-|
D|----2~--2-0-2-----0-2~--2-0-2-----0-2~--2-0-2-----0-2~--------------|


          (0:38)
  it's not o.k.   not o.k.        it's not okay until they take me away    
D|----------------------------------------------------------------|
A|----------------------------------------------------------------|
F|----------2-2-------------5-5-------------2-2-------4/5-5-5-4-4-|
C|4~--4-2-4-2-2-2-4~--4-2-4-5-5-2-4~--4-2-4-2-2-2-4~--4/5-5-5-4-4-|
G|4~--4-2-4-0-0-2-4~--4-2-4-3-3-2-4~--4-2-4-0-0-2-4~--2/3-3-3-2-2-|
D|2~--2-0-2-----0-2~--2-0-2-----0-2~--2-0-2-----0-2~--------------|


Verse 2   (0:45)
      as torture turns i create, a martyr saving the day
  i fell on all your mistakes, (& give 'em all away) 
D|----------------------------------------------------------------|
A|----------------------------------------------------------------|
F|----------2-2-------------5-5-------------2-2-------4/5-5-5-4-4-|
C|4---4-2-4-2-2-2-4---4-2-4-5-5-2-4---4-2-4-2-2-2-4---4/5-5-5-4-4-|
G|4---4-2-4-0-0-2-4---4-2-4-3-3-2-4---4-2-4-0-0-2-4---2/3-3-3-2-2-|
D|2---2-0-2-----0-2---2-0-2-----0-2---2-0-2-----0-2---------------|
  *   * * * * * * *   * * * * * * *   * * * * * * *


          (0:52)
  wait, you can't just leave him alone, until he bitches 'n moans
  and you're accosted at home, (payback is quick that way) 
D|----------------------------------------------------------------|
A|----------------------------------------------------------------|
F|----------2-2-------------5-5-------------2-2-------4/5-5-5-4-4-|
C|4~--4-2-4-2-2-2-4~--4-2-4-5-5-2-4~--4-2-4-2-2-2-4~--4/5-5-5-4-4-|
G|4~--4-2-4-0-0-2-4~--4-2-4-3-3-2-4~--4-2-4-0-0-2-4~--2/3-3-3-2-2-|
D|2~--2-0-2-----0-2~--2-0-2-----0-2~--2-0-2-----0-2~--------------|


Pre Chorus 2 (0:59)
  effected        rejected        by-product of the corrected
D|----------------------------------------------------------------|
A|----------------------------------------------------------------|
F|7-7-7-7-7-7-7-7-4-4-4-4-4-4-4-4---------------------------------|
C|7-7-7-7-7-7-7-7-4-4-4-4-4-4-4-4-4-4-4-4-4-4-4/6-7-7-7-7-7-7-7-7-|
G|5-5-5-5-5-5-5-5-2-2-2-2-2-2-2-2-4-4-4-4-4-4-4/6-7-7-7-7-7-7-7-7-|
D|--------------------------------2-2-2-2-2-2-2/4-5-5-5-5-5-5-5-5-|


          (1:05)
  an eye for an eye today
D|------------------------|
A|------------------------|
F|7-7-7-7-7-7-7-7-9-9-9-9-|
C|7-7-7-7-7-7-7-7-9-9-9-9-|
G|5-5-5-5-5-5-5-5-7-7-7-7-|
D|------------------------|
                  * *   * 


Chorus 2  (1:08)
      get away        and away        get away before we really suffer
D|--------------------------------------------------------------------|
A|--------------------------------------------------------------------|
F|6-6-----------2-2-------------5-5-------------2-2-------4/5-5-5-4-4-|
C|6-6-4~--4-2-4-2-2-2-4~--4-2-4-5-5-2-4~--4-2-4-2-2-2-4~--4/5-5-5-4-4-|
G|4-4-4~--4-2-4-0-0-2-4~--4-2-4-3-3-2-4~--4-2-4-0-0-2-4~--2/3-3-3-2-2-|
D|----2~--2-0-2-----0-2~--2-0-2-----0-2~--2-0-2-----0-2~--------------|


          (1:16)
  there's no way  there's no way  there's no way until they lock me away
D|----------------------------------------------------------------|
A|----------------------------------------------------------------|
F|----------2-2-------------5-5-------------2-2-------4/5-5-5-4-4-|
C|4~--4-2-4-2-2-2-4~--4-2-4-5-5-2-4~--4-2-4-2-2-2-4~--4/5-5-5-4-4-|
G|4~--4-2-4-0-0-2-4~--4-2-4-3-3-2-4~--4-2-4-0-0-2-4~--2/3-3-3-2-2-|
D|2~--2-0-2-----0-2~--2-0-2-----0-2~--2-0-2-----0-2~--------------|


Bridge   (1:23)
  whoa-ohh-oh     whoa-ohh-oh     whoa-ohh-oh-oh  oh-ohh-ohh-oh
D|----------------------------------------------------------------|
A|----------------------------------------------------------------|
F|7-7-7-7-7-7-7-7-----------------7-7-7-7-7-7-7-7-----------------|
C|7-7-7-7-7-7-7-7-4-4-4-4-4-4-4-4-7-7-7-7-7-7-7-7-4-4-4-4-4-4-4-4-|
G|5-5-5-5-5-5-5-5-4-4-4-4-4-4-4-4-5-5-5-5-5-5-5-5-4-4-4-4-4-4-4-4-|
D|----------------2-2-2-2-2-2-2-2-----------------2-2-2-2-2-2-2-2-|


          (1:30)
  whoa-ohh-oh     whoa-ohh-oh     you want it all away
D|----------------------------------------------------------------|
A|----------------------------------------------------------------|
F|7-7-7-7-7-7-7-7-----------------4-4-4-4-4-4-4-4-4-4-4-4-4-6-6---|
C|7-7-7-7-7-7-7-7-4-4-4-4-4-4-4-4-4-4-4-4-4-4-4-4-4-4-4-4-4-6-6-4-|
G|5-5-5-5-5-5-5-5-4-4-4-4-4-4-4-4-2-2-2-2-2-2-2-2-2-2-2-2-2-4-4-4-|
D|----------------2-2-2-2-2-2-2-2-------------------------------2-|


you want it all away
sHHHHH. (heavy breathing)


Rhythm Under Solo (1:50)
D|--------------------------------------------------------------------|
A|--------------------------------------------------------------------|
F|6~------------2-2-------------5-5-------------2-2-------4/5-5-5-4-4-|
C|6~--4~--4-2-4-2-2-2-4~--4-2-4-5-5-2-4~--4-2-4-2-2-2-4~--4/5-5-5-4-4-|
G|4~--4~--4-2-4-0-0-2-4~--4-2-4-3-3-2-4~--4-2-4-0-0-2-4~--2/3-3-3-2-2-|
D|----2~--2-0-2-----0-2~--2-0-2-----0-2~--2-0-2-----0-2~--------------|


          (1:57)
D|----------------------------------------------------------------|
A|----------------------------------------------------------------|
F|----------2-2-------------5-5-------------2-2-------4/5-5-5-4-4-|
C|4~--4-2-4-2-2-2-4~--4-2-4-5-5-2-4~--4-2-4-2-2-2-4~--4/5-5-5-4-4-|
G|4~--4-2-4-0-0-2-4~--4-2-4-3-3-2-4~--4-2-4-0-0-2-4~--2/3-3-3-2-2-|
D|2~--2-0-2-----0-2~--2-0-2-----0-2~--2-0-2-----0-2~--------------|


Solo      (1:50)
D|----9----9----------9-----------------------------------------------------------|
A|----12pb-12pb-------12pbr--------------------------------10-12-12br-12~-12~-12~-|
F|-------------------------------------------------11-9-11------------------------|
C|-----------------------------------------11-9-----------------------------------|
G|------------------------------------9-12------12--------------------------------|
D|--------------------------------------------------------------------------------|


          (1:57)
D|---12~----12~-12~--14-14~-14~----16~-17-16-17-16----------------|
A|14-----------------------------------------------19--19~--------|
F|----------------------------------------------------------------|
C|----------------------------------------------------------------|
G|----------------------------------------------------------------|
D|----------------------------------------------------------------|


Pre Chorus 3 (2:04)
  fixated         sedated         no electric-shock can erase it   
D|----------------------------------------------------------------|
A|----------------------------------------------------------------|
F|7-7-7-7-7-7-7-7-4-4-4-4-4-4-4-4---------------------------------|
C|7-7-7-7-7-7-7-7-4-4-4-4-4-4-4-4-4-4-4-4-4-4-4/6-7-7-7-7-7-7-7-7-|
G|5-5-5-5-5-5-5-5-2-2-2-2-2-2-2-2-4-4-4-4-4-4-4/6-7-7-7-7-7-7-7-7-|
D|--------------------------------2-2-2-2-2-2-2/4-5-5-5-5-5-5-5-5-|


          (2:11)
  well, they die another day
D|------------------------|
A|------------------------|
F|7-7-7-7-7-7-7-7-9-9-9-9-|
C|7-7-7-7-7-7-7-7-9-9-9-9-|
G|5-5-5-5-5-5-5-5-7-7-7-7-|
D|------------------------|
                  * *   * 


Chorus 3  (2:14)
  get away        & away          get away before we really suffer 
D|--------------------------------------------------------------------|
A|--------------------------------------------------------------------|
F|6-6-------------6-6-------------6-6-----------2-2-------4/5-5-5-4-4-|
C|6-6-4~----------6-6-4~----------6-6-4~--4-2-4-2-2-2-4~--4/5-5-5-4-4-|
G|4-4-4~----------4-4-4~----------4-4-4~--4-2-4-0-0-2-4~--2/3-3-3-2-2-|
D|----2~--------------2~--------------2~--2-0-2-----0-2~--------------|


          (2:21)
  it's not o.k.   not o.k.        it's not okay until they put me away 
D|----------------------------------------------------------------|
A|----------------------------------------------------------------|
F|----------2-2-------------5-5-------------2-2-------4/5-5-5-4-4-|
C|4~--4-2-4-2-2-2-4~--4-2-4-5-5-2-4~--4-2-4-2-2-2-4~--4/5-5-5-4-4-|
G|4~--4-2-4-0-0-2-4~--4-2-4-3-3-2-4~--4-2-4-0-0-2-4~--2/3-3-3-2-2-|
D|2~--2-0-2-----0-2~--2-0-2-----0-2~--2-0-2-----0-2~--------------|


Outro     (2:28)
  get away        & away          get away before we really suffer 
D|----------------------------------------------------------------|
A|----------------------------------------------------------------|
F|----------2-2-------------5-5-------------2-2-------4/5-5-5-4-4-|
C|4---4-2-4-2-2-2-4---4-2-4-5-5-2-4---4-2-4-2-2-2-4---4/5-5-5-4-4-|
G|4---4-2-4-0-0-2-4---4-2-4-3-3-2-4---4-2-4-0-0-2-4---2/3-3-3-2-2-|
D|2---2-0-2-----0-2---2-0-2-----0-2---2-0-2-----0-2---------------|


          (2:35)
  get away        get away        get away before we really suffer 
D|----------------------------------------------------------------|
A|----------------------------------------------------------------|
F|----------2-2-------------5-5-----------------------------------|
C|4---4-2-4-2-2-2-4---4-2-4-5-5-2-4~------------------------------|
G|4---4-2-4-0-0-2-4---4-2-4-3-3-2-4~------------------------------|
D|2---2-0-2-----0-2---2-0-2-----0-2~------------------------------|



Tablature Legend
----------------
~   Vibrato/Let it ring   
/   Slide UP
pb  Pre Bend
pbr Pre Bend Release 
br  Bend Release
*   Palm Mute

(Time:Stamp) included to play along with album version. 
Добавлено: 18.06.2013
Другие материалы по этой песне:

Страница создана 18.06.2013
http://primanota.ru/die-mannequin/suffer-chords.htm
Привет, Гость.
Предлагаем пройти революционный курс по гитаре.
Подарок от PrimaNota.Ru, забирай!