PrimaNota.ru - самый крупный в мире бесплатный архив песенных текстов, аккордов, табулатур и нот


Die Mannequin - Orson Welles 2012 - таба, видео

Регистрация Запомнить меня
Войти через:  Facebook Google Twitter Vk Yandex Mail.ru

Die Mannequin - Orson Welles 2012 - таба, видео

Печатать
Просмотров: 98
           Orson Welles & 2012 - Die Mannequin - Danceland

Tabbed by: MCfromTMP

Tuning: D Tuning


Intro     (0:00)
D|---------------------------------|
A|---------------------------------|
F|---------------------------------|
C|---------------------------------|    x2
G|7-7-7--10-10-10--9-9-9--12-12-12-|
D|0-0-0--0--0--0---0-0-0--0--0--0--|


Verse 1   (0:06)
  our world is fading,   restless leaders spit their reasons
D|----------------------------------------------------------|
A|----------------------------------------------------------|
F|----------------------------------------------------------|
C|----------------------------------------------------------|
G|--7------7------10------10------7------7------5------5--5-|
D|0----0-0----0-0-----0-0-----0-0----0-0----0-0----0-0------|
  *    * *    * *     * *     * *    * *    * *    * * 


          (0:12)
  drooling to M.T.V.,              stokholm syndrome's missing children
D|---------------------------------------------------------------------|
A|---------------------------------------------------------------------|
F|---------------------------------------------------------------------|
C|-------------------------------------------------------------------0-|
G|7-7-7--7-7-7--10-10-10--10-10-10--7-7-7--10-10-10--9-9-9--12-12-12-0-|
D|0-0-0--0-0-0--0--0--0---0--0--0---0-0-0--0--0--0---0-0-0--0--0--0----|


Chorus 1  (0:17)
  i hope i find the right place for myself, so you'll never find me
  i hope i save all my friends from themselves, cos' they're dying on me
D|----------------------------------------------------------------|
A|----------------------------------------------------------------|
F|5-5-5-5-5-5-5-5-2-2-2-2-2-2-2-2-9-9-9-9-9-9-9-9-7-7-7-7-7-7-7-7-|
C|5-5-5-5-5-5-5-5-2-2-2-2-2-2-2-2-9-9-9-9-9-9-9-9-7-7-7-7-7-7-7-7-|    x2
G|3-3-3-3-3-3-3-3-0-0-0-0-0-0-0-0-7-7-7-7-7-7-7-7-5-5-5-5-5-5-5-5-|
D|----------------------------------------------------------------|


          (0:29)
  i hope i find the right place for myself, 
D|--------------------------------|
A|--------------------------------|
F|5-5-5-5-5-5-5-5-2-2-2-2-2-2-2-2-|
C|5-5-5-5-5-5-5-5-2-2-2-2-2-2-2-2-|
G|3-3-3-3-3-3-3-3-0-0-0-0-0-0-0-0-|
D|--------------------------------|


          (0:32)
                                  for myself
D|-----------------------------------------------------------------|
A|-----------------------------------------------------------------|
F|-----------------------------------------------------------------|
C|-----------------------------------------------------------------|
G|7-7--10-10-10--9-9-9--12-12-12--7-7-7--10-10-10--9-9-9--12-12-12-|
D|0-0--0--0--0---0-0-0--0--0--0---0-0-0--0--0--0---0-0-0--0--0--0--|


Verse 2   (0:38)
  the system is failing,          orson welles & 2012 so
D|----------------------------------------------------------|
A|----------------------------------------------------------|
F|----------------------------------------------------------|
C|----------------------------------------------------------|
G|--7------7------10------10------7------7------5------5--5-|
D|0----0-0----0-0-----0-0-----0-0----0-0----0-0----0-0------|
  *    * *    * *     * *     * *    * *    * *    * *


          (0:44)
  pass the lobotomy,                i can taste the puke in my mouth
D|---------------------------------------------------------------------|
A|---------------------------------------------------------------------|
F|---------------------------------------------------------------------|
C|-------------------------------------------------------------------0-|
G|7-7-7--7-7-7--10-10-10--10-10-10--7-7-7--10-10-10--9-9-9--12-12-12-0-|
D|0-0-0--0-0-0--0--0--0---0--0--0---0-0-0--0--0--0---0-0-0--0--0--0----|


Chorus 2  (0:49)
  i hope i find the right place for myself, so you'll never find me
  i hope i save all my friends from themselves, cos' they're dying on me
  we fight right back when they're holding us down, don't you dare defy me
D|----------------------------------------------------------------|
A|----------------------------------------------------------------|
F|5-5-5-5-5-5-5-5-2-2-2-2-2-2-2-2-9-9-9-9-9-9-9-9-7-7-7-7-7-7-7-7-|
C|5-5-5-5-5-5-5-5-2-2-2-2-2-2-2-2-9-9-9-9-9-9-9-9-7-7-7-7-7-7-7-7-|    x3
G|3-3-3-3-3-3-3-3-0-0-0-0-0-0-0-0-7-7-7-7-7-7-7-7-5-5-5-5-5-5-5-5-|
D|----------------------------------------------------------------|


          (1:07)
  i hope i find the right place   i hope i make our escape
D|----------------------------------------------------------------|
A|----------------------------------------------------------------|
F|5-5-5-5-5-5-5-5-2-2-2-2-2-2-x~--5-5-5-5-5-5-5-5-2-2-2-2-2-2-2-2-|
C|5-5-5-5-5-5-5-5-2-2-2-2-2-2-x~--5-5-5-5-5-5-5-5-2-2-2-2-2-2-2-2-|
G|3-3-3-3-3-3-3-3-0-0-0-0-0-0-x~--3-3-3-3-3-3-3-3-0-0-0-0-0-0-0-0-|
D|----------------------------------------------------------------|


Bridge    (1:12)
  standin'                         in your battle ground
D|----------------------------------------------------------------------|
A|----------------------------------------------------------------------|
F|----------------------------------------------------------------------|
C|----------------------------------------------------------------------|
G|----9-----9---10-----10-----10---9-----9-----9---10-----10-----10---9-|
D|8-8---8-8---8----8-8----8-8----8---0-0---0-0---0----0-0----0-0----0---|
  * *   * *   *    * *    * *    *   * *   * *   *    * *    * *    *


          (1:18)
  our love             could         break us
D|----------------------------------------------------------------------|
A|----------------------------------------------------------------------|
F|----------------------------------------------------------------------|
C|----------------------------------------------------------------------|
G|----9-----9---10-----10-----10---9-----9-----9---10-----7-----7-------|
D|8-8---8-8---8----8-8----8-8----8---0-0---0-0---0----0-0---0-0---0-10--|
  * *   * *   *    * *    * *    *   * *   * *   *    * *   * *   *   


          (1:24)
  fading                           in our comedown
D|----------------------------------------------------------------------|
A|----------------------------------------------------------------------|
F|----------------------------------------------------------------------|
C|----------------------------------------------------------------------|
G|----9-----9---10-----10-----10---9-----9-----9---10-----10-----10---9-|
D|8-8---8-8---8----8-8----8-8----8---0-0---0-0---0----0-0----0-0----0---|
  * *   * *   *    * *    * *    *   * *   * *   *    * *    * *    *


          (1:30)
  our love             is            thicker
D|----------------------------------------------------------------------|
A|----------------------------------------------------------------------|
F|----------------------------------------------------------------------|
C|----------------------------------------------------------------------|
G|----9-----9---10-----10-----10---9-----9-----9---9-----7-----7---7----|
D|8-8---8-8---8----8-8----8-8----8---0-0---0-0---0---0-0---0-0---0------|
  * *   * *   *    * *    * *    *   * *   * *   *   * *   * *   *   


Chorus 3 (1:35)
  i hope i find the right place for myself, will you stand behind me
D|----------------------------------------------------------------|
A|----------------------------------------------------------------|
F|5-----------5~--2-2-2-2-2-2-2-2-9-9-9-9-9-9-9-9-7-7-7-7-7-7-7-7-|
C|5-----------5~--2-2-2-2-2-2-2-2-9-9-9-9-9-9-9-9-7-7-7-7-7-7-7-7-|
G|3-----------3~--0-0-0-0-0-0-0-0-7-7-7-7-7-7-7-7-5-5-5-5-5-5-5-5-|
D|----------------------------------------------------------------|         

 
         (1:41)
  i hope i save all my friends from themselves, cos' they're dying on me
  we fight right back when they're holding us down, don't you dare define me
D|----------------------------------------------------------------|
A|----------------------------------------------------------------|
F|5-5-5-5-5-5-5-5-2-2-2-2-2-2-2-2-9-9-9-9-9-9-9-9-7-7-7-7-7-7-7-7-|
C|5-5-5-5-5-5-5-5-2-2-2-2-2-2-2-2-9-9-9-9-9-9-9-9-7-7-7-7-7-7-7-7-|    x2
G|3-3-3-3-3-3-3-3-0-0-0-0-0-0-0-0-7-7-7-7-7-7-7-7-5-5-5-5-5-5-5-5-|
D|----------------------------------------------------------------|


          (1:53)
  i hope i find the right place   i hope i make our escape
D|----------------------------------------------------------------|
A|----------------------------------------------------------------|
F|5-5-5-5-5-5-5-5-2-2-2-2-2-2-x~--5-5-5-5-5-5-5-5-2-2-2-2-2-2-2-2-|
C|5-5-5-5-5-5-5-5-2-2-2-2-2-2-x~--5-5-5-5-5-5-5-5-2-2-2-2-2-2-2-2-|
G|3-3-3-3-3-3-3-3-0-0-0-0-0-0-x~--3-3-3-3-3-3-3-3-0-0-0-0-0-0-0-0-|
D|----------------------------------------------------------------|


          (1:59)
  i hope i find the right place
D|--------------------------------|
A|--------------------------------|
F|5-5-5-5-5-5-5-5-2-2-2-2-2-2-2-2-|
C|5-5-5-5-5-5-5-5-2-2-2-2-2-2-2-2-|
G|3-3-3-3-3-3-3-3-0-0-0-0-0-0-0-0-|
D|--------------------------------|


Outro     (2:01)
D|-----------------------------------------------------------------|
A|-----------------------------------------------------------------|
F|-----------------------------------------------------------------|
C|-----------------------------------------------------------------|
G|7-7--10-10-10--9-9-9--12-12-12--7-7-7--10-10-10--9-9-9--12-12-12-|
D|0-0--0--0--0---0-0-0--0--0--0---0-0-0--0--0--0---0-0-0--0--0--0--|
  * *  *  *  *   * * *  *  *  *


          (2:07)
D|-----------------------------------------------------------------|
A|-----------------------------------------------------------------|
F|-----------------------------------------------------------------|
C|----------------------------------9~------11---12------14-----\--|
G|7-7-7--10-10-10---10-9----12-9-12--------------------------------|
D|0-0-0--0--0--0---------10----------------------------------------|
                                             ttttttttttttttttttt


          (2:26)
  yeah
D|----------------------------|
A|----------------------------|
F|----------------------------|
C|9\--------------------------|
G|9\--------------------------|
D|7\--------------------------|



Tablature Legend
----------------
~ Vibrato/Let it ring   
\ Slide Down 
x Fret-Hand Mutes
t Tremolo Picking
* Palm Mute 

(Time:Stamp) included to play along with album version. 
Добавлено: 17.07.2013
Вам также может быть интересно:
Другие материалы по этой песне:
  • Аккорды и текст

Страница создана 17.07.2013
http://primanota.ru/die-mannequin/orson-welles-2012-chords.htm
Привет, Гость.
Предлагаем пройти революционный курс по гитаре.
Подарок от PrimaNota.Ru, забирай!