PrimaNota.ru - самый крупный в мире бесплатный архив песенных текстов, аккордов, табулатур и нот


Die Mannequin - Open Season - таба, видео

Регистрация Запомнить меня
Войти через:  Facebook Google Twitter Vk Yandex Mail.ru

Die Mannequin - Open Season - таба, видео

Печатать
Просмотров: 134
Уроки эстрадного вокала в Санкт-Петербурге
Авторы: Care Failure

         Open Season - Die Mannequin - Fino + Bleed

Tabbed by: MCfromTMP

D Tuning

Intro
Lead (0:00)
                                              Donut   Kill Self
D|----------------------------------------------------------------|
A|------------------------------------------------12~-------12----|
F|--------------------------------------------/12-------12--------|
C|----------------------------------------------------------------|
G|----------------------------------------------------------------|
D|(11)\0~~~~~~~~--------------------------------------------------|

Rhythm (0:07)
  Oh oh, oh oh, oh oh, oh oh      Whoa oh, whoa oh, oh oh, Oohh
D|----------------------------------------------------------------|
A|----------------------------------------------------------------|
F|----------------5-5-5-5-5-5-5-5-----------------5-5-5-5-5-5-5~--|
C|2-2-2-2-2-2-2-2-5-5-5-5-5-5-5-5-2-2-2-2-2-2-2-2-5-5-5-5-5-5-5~--|
G|2-2-2-2-2-2-2-2-3-3-3-3-3-3-3-3-2-2-2-2-2-2-2-2-3-3-3-3-3-3-3~--|
D|0-0-0-0-0-0-0-0-----------------0-0-0-0-0-0-0-0-----------------|

Lead (0:07)
D|----------------------------------------------------------------|
A|----------------------------------------------------------------|
F|----------------------------------------------------------------|
C|----5h7-----5h7-----5h7-----5h7-----5h7-----5h7-----5h7-----7^r-|
G|----------------------------------------------------------------|
D|0-0-----0-0-----8-8-----8-8-----0-0-----0-0-----8-8-----8-8-----|
  * *     * *     * *     * *     * *     * *     * *     * *

Verse 1
Lead   (0:14)
  Open season, shoot, shoot       Inching so quietly, through, through
D|----------------------------------------------------------------|
A|----------------------------------------------------------------|
F|----------------------------------------------------------------|
C|----5h7-----5h7---------------------5h7-----5h7-------------5~--|
G|--------------------5~------5~----------------------5~----------|
D|0-0-----0-0-----0-0-----0-0-----0-0-----0-0-----0-0-----0-0-----|
  * * * * * * * * * *     * *     * *     * *     * *     * *

Lead
  Killer society, you'll, you'll  Catch me, and find me, soon, soon
D|-----------------------------------------------------------------|
A|-----------------------------------------------------------------|
F|-----------------------------------------------------------------|
C|----5h7---5-7^r---------------------5h7---5-7^r-------------4^r--|
G|--------------------5~------5~----------------------5~-----------|
D|0-0-----0-------0-0-----0-0-----0-0-----0-------0-0-----0-0------|
  * *     *       * *     * *     * *     *       * *     * *

Rhythm (0:28)
  Oh oh, oh oh, oh oh, oh oh      Whoa oh, whoa oh, oh oh, Oohh
D|----------------------------------------------------------------|
A|----------------------------------------------------------------|
F|----------------5-5-5-5-5-5-5-5-----------------5-5-5-5-5-5-5~--|
C|2-2-2-2-2-2-2-2-5-5-5-5-5-5-5-5-2-2-2-2-2-2-2-2-5-5-5-5-5-5-5~--|
G|2-2-2-2-2-2-2-2-3-3-3-3-3-3-3-3-2-2-2-2-2-2-2-2-3-3-3-3-3-3-3~--|
D|0-0-0-0-0-0-0-0-----------------0-0-0-0-0-0-0-0-----------------|

Lead   (0:28)
D|----------------------------------------------------------------|
A|----------------------------------------------------------------|
F|----------------------------------------------------------------|
C|----5h7-----5h7-----5h7-----5h7-----5h7-----5h7-----5h7-----7^r-|
G|----------------------------------------------------------------|
D|0-0-----0-0-----8-8-----8-8-----0-0-----0-0-----8-8-----8-8-----|
  * *     * *     * *     * *     * *     * *     * *     * *

Verse 2
Lead    (0:36)
  Open season, shoot, shoot       The murder they make us do, do
D|----------------------------------------------------------------|
A|----------------------------------------------------------------|
F|----------------------------------------------------------------|
C|------------------------------------5h7---5-7^r-------------5~--|
G|--------------------5~------5~----------------------5~----------|
D|0-0-0-0-0-0-0-0-0-0-----0-0-----0-0-----0-------0-0-----0-0-----|
  * * * * * * * *

Lead
  A haunting so madly, you, you   Slipping so slightly through you
D|-----------------------------------------------------------------|
A|-----------------------------------------------------------------|
F|-----------------------------------------------------------------|
C|----5h7---5-7^r---------------------5h7---5-7^r-------------4^r--|
G|--------------------5~------5~----------------------5~-----------|
D|0-0-----0-------0-0-----0-0-----0-0-----0-------0-0-----0-0------|

Pre Chrous 1
Rhythm   (0:50)
  Hold my arms breaking           Hold my hand make me
D|----------------------------------------------------------------|
A|----------------------------------------------------------------|
F|--------------------------------5-5-5-5-5-5-5-5-5-5-5-5-5-5-5-5-|
C|2-2-2-2-2-2-2-2-2-2-2-2-2-2-2-2-5-5-5-5-5-5-5-5-5-5-5-5-5-5-5-5-|
G|2-2-2-2-2-2-2-2-2-2-2-2-2-2-2-2-3-3-3-3-3-3-3-3-3-3-3-3-3-3-3-3-|
D|0-0-0-0-0-0-0-0-0-0-0-0-0-0-0-0---------------------------------|

  When there's nothing you know   Worth surviving
D|----------------------------------------------------------------|
A|----------------------------------------------------------------|
F|--------------------------------5-5-5-5-5-5-5-5-7-7-7-7-7-7-7-7-|
C|2-2-2-2-2-2-2-2-2-2-2-2-2-2-2-2-5-5-5-5-5-5-5-5-7-7-7-7-7-7-7-7-|
G|2-2-2-2-2-2-2-2-2-2-2-2-2-2-2-2-3-3-3-3-3-3-3-3-5-5-5-5-5-5-5-5-|
D|0-0-0-0-0-0-0-0-0-0-0-0-0-0-0-0---------------------------------|

Lead     (0:50)
D|----------------------------------------------------------------|
A|----------------------------------------------------------------|
F|----------------------------------------------------------------|
C|----------------------------------------------------------------|
G|----10~---9~----7~----------7~------10~---9~----7~--------------|
D|----------------------10~-----------------------------10~---7~--|

D|----------------------------------------------------------------|
A|----------------------------------------------------------------|
F|------------------------------------------------7-7-7-7-7-7-7-7-|
C|------------------------------------------------7-7-7-7-7-7-7-7-|
G|----10~---9~----7~----------7~------10~---9~----5-5-5-5-5-5-5-5-|
D|----------------------10~---------------------------------------|

Chorus 1 (1:04)
  Fall away and leave forever             Take my life so they can never
  See the light, I don't believe in       Trying to live without a reason
  Can, can                                How can we fight against this one
  You better, you better learn            Or do we fight against this one
D|------------------------------------------------------------------------|
A|------------------------------------------------------------------------|
F|9-9-9-9-9-9-9-9-12-12-12-12-12-12-12-12-5-5-5-5-5-5-5-5-2-2-2-2-2-2-2-2-|
C|9-9-9-9-9-9-9-9-12-12-12-12-12-12-12-12-5-5-5-5-5-5-5-5-2-2-2-2-2-2-2-2-|  x4
G|7-7-7-7-7-7-7-7-10-10-10-10-10-10-10-10-3-3-3-3-3-3-3-3-0-0-0-0-0-0-0-0-|
D|------------------------------------------------------------------------|

Rhythm (1:32)
  Hold on,                        you better
D|----------------------------------------------------------------|
A|----------------------------------------------------------------|
F|----------------5-5-5-5-5-5-5-5-----------------5-5-5-5-5-5-5~--|
C|2-2-2-2-2-2-2-2-5-5-5-5-5-5-5-5-2-2-2-2-2-2-2-2-5-5-5-5-5-5-5~--|
G|2-2-2-2-2-2-2-2-3-3-3-3-3-3-3-3-2-2-2-2-2-2-2-2-3-3-3-3-3-3-3~--|
D|0-0-0-0-0-0-0-0-----------------0-0-0-0-0-0-0-0-----------------|

Lead  (1:32)
D|----------------------------------------------------------------|
A|----------------------------------------------------------------|
F|----------------------------------------------------------------|
C|----5h7-----5h7-----5h7-----5h7-----5h7-----5h7-----5h7-----7^r-|
G|----------------------------------------------------------------|
D|0-0-----0-0-----8-8-----8-8-----0-0-----0-0-----8-8-----8-8-----|
  * *     * *     * *     * *     * *     * *     * *     * *

Verse 3
Lead    (1:40)
  Hunting season, shoot, shoot    Escaping the pavement, through, through
D|-----------------------------------------------------------------|
A|-----------------------------------------------------------------|
F|-----------------------------------------------------------------|
C|2~~~~~~~------------------------2~~~~~~~-------------------------|
G|2~~~~~~~------------------------2~~~~~~~-------------------------|
D|0~~~~~~~------------------------0~~~~~~~-------------------------|

Lead    (1:47)
  Hellbent conniving, you, you    Sister's and whispers, through and through
D|-----------------------------------------------------------------|
A|-----------------------------------------------------------------|
F|-----------------------------------------------------------------|
C|----5h7---5-7^r---------------------5h7---5-7^r-------------4^r--|
G|--------------------5~------5~----------------------5~-----------|
D|0-0-----0-------0-0-----0-0-----0-0-----0-------0-0-----0-0------|
  * *     *       * *     * *     * *     *

Rhythm  (1:47)
D|-----------------------------------------------------------------|
A|-----------------------------------------------------------------|
F|----------------------------------------------------7-------2----|
C|------------------------------------------------2-2-7---2-2-2----|
G|------------------------------------------------2-2-5---2-2-0----|
D|------------------------------------------------0-0-----0-0------|

Pre Chrous 2
Rhythm   (1:54)
  Hold my arms breaking           Hold my hand make me
D|----------------------------------------------------------------|
A|----------------------------------------------------------------|
F|--------------------------------5-5-5-5-5-5-5-5-5-5-5-5-5-5-5-5-|
C|2-2-2-2-2-2-2-2-2-2-2-2-2-2-2-2-5-5-5-5-5-5-5-5-5-5-5-5-5-5-5-5-|
G|2-2-2-2-2-2-2-2-2-2-2-2-2-2-2-2-3-3-3-3-3-3-3-3-3-3-3-3-3-3-3-3-|
D|0-0-0-0-0-0-0-0-0-0-0-0-0-0-0-0---------------------------------|

  When there's nothing you know   Worth surviving
D|----------------------------------------------------------------|
A|----------------------------------------------------------------|
F|--------------------------------5-5-5-5-5-5-5-5-7-7-7-7-7-7-7-7-|
C|2-2-2-2-2-2-2-2-2-2-2-2-2-2-2-2-5-5-5-5-5-5-5-5-7-7-7-7-7-7-7-7-|
G|2-2-2-2-2-2-2-2-2-2-2-2-2-2-2-2-3-3-3-3-3-3-3-3-5-5-5-5-5-5-5-5-|
D|0-0-0-0-0-0-0-0-0-0-0-0-0-0-0-0---------------------------------|

Lead     (1:54)
D|----------------------------------------------------------------|
A|----------------------------------------------------------------|
F|----------------------------------------------------------------|
C|----------------------------------------------------------------|
G|----10~---9~----7~----------7~------10~---9~----7~--------------|
D|----------------------10~-----------------------------10~---7~--|

D|----------------------------------------------------------------|
A|----------------------------------------------------------------|
F|------------------------------------------------7-7-7-7-7-7-7-7-|
C|------------------------------------------------7-7-7-7-7-7-7-7-|
G|----10~---9~----7~----------7~------10~---9~----5-5-5-5-5-5-5-5-|
D|----------------------10~---------------------------------------|

Chorus 2 (2:08)
  Fall away and leave forever             Take my life but we will never
  See the light, I don't believe in       Trying to live without a reason
  Can, can                                Until we fight against this war
  You better, you better learn            Will we survive against this one
D|------------------------------------------------------------------------|
A|------------------------------------------------------------------------|
F|9-9-9-9-9-9-9-9-12-12-12-12-12-12-12-12-5-5-5-5-5-5-5-5-2-2-2-2-2-2-2-2-|
C|9-9-9-9-9-9-9-9-12-12-12-12-12-12-12-12-5-5-5-5-5-5-5-5-2-2-2-2-2-2-2-2-|  x4
G|7-7-7-7-7-7-7-7-10-10-10-10-10-10-10-10-3-3-3-3-3-3-3-3-0-0-0-0-0-0-0-0-|
D|------------------------------------------------------------------------|

Bridge
(2:36)
  Right on me, running through me (In hiding you'll never find me)
D|----------------------------------------------------------------|
A|----------------------------------------------------------------|
F|5-5-5-5-5-5-5-5-5-5-5-5-5-5-5-5---------------------------------|
C|5-5-5-5-5-5-5-5-5-5-5-5-5-5-5-5-2-2-2-2-2-2-2-2-2-2-2-2-2-2-2-2-|
G|3-3-3-3-3-3-3-3-3-3-3-3-3-3-3-3-2-2-2-2-2-2-2-2-2-2-2-2-2-2-2-2-|
D|--------------------------------0-0-0-0-0-0-0-0-0-0-0-0-0-0-0-0-|

  A war calling, an army inside me (Please help me, you'll never find me)
D|----------------------------------------------------------------|
A|----------------------------------------------------------------|
F|5-5-5-5-5-5-5-5-5-5-5-5-5-5-5-5-----------------7-7-7-7-7-7-7-7-|
C|5-5-5-5-5-5-5-5-5-5-5-5-5-5-5-5-2-2-2-2-2-2-2-2-7-7-7-7-7-7-7-7-|
G|3-3-3-3-3-3-3-3-3-3-3-3-3-3-3-3-2-2-2-2-2-2-2-2-5-5-5-5-5-5-5-5-|
D|--------------------------------0-0-0-0-0-0-0-0-----------------|

  A light on me, a bullet inside me  Again and again and again
D|----------------------------------------------------------------|
A|----------------------------------------------------------------|
F|5-5-5-5-5-5-5-5-4-4-4-4-4-4-4-4-2-2-2-2-2-2-2-2-2-2-2-2-2-2-----|
C|5-5-5-5-5-5-5-5-4-4-4-4-4-4-4-4-2-2-2-2-2-2-2-2-2-2-2-2-2-2-2~--|
G|3-3-3-3-3-3-3-3-2-2-2-2-2-2-2-2-0-0-0-0-0-0-0-0-0-0-0-0-0-0-2~--|
D|------------------------------------------------------------0~--|

Chorus 3
Rhythm   (2:58)
  Fall away and leave forever             Take my life so they can never
D|------------------------------------------------------------------------|
A|------------------------------------------------------------------------|
F|----------------12-12-12-12-12-12-12-12-5-5-5-5-5-5-5-5-2-2-2-2-2-2-2-2-|
C|------------2~--12-12-12-12-12-12-12-12-5-5-5-5-5-5-5-5-2-2-2-2-2-2-2-2-|
G|------------2~--10-10-10-10-10-10-10-10-3-3-3-3-3-3-3-3-0-0-0-0-0-0-0-0-|
D|------------0~----------------------------------------------------------|

Lead     (2:58)
D|------------------------------------------------------------------------|
A|------------------------------------------------------------------------|
F|9-9-9-9-9-9-9-9-12-12-12-12-12-12-12-12-5-5-5-5-5-5-5-5-2-2-2-2-2-2-2-2-|
C|9-9-9-9-9-9-9-9-12-12-12-12-12-12-12-12-5-5-5-5-5-5-5-5-2-2-2-2-2-2-2-2-|
G|7-7-7-7-7-7-7-7-10-10-10-10-10-10-10-10-3-3-3-3-3-3-3-3-0-0-0-0-0-0-0-0-|
D|------------------------------------------------------------------------|

(3:05)
  See the light, I don't believe in       Trying to live without a reason
  Can, can                                Or do we fight against this war
  You better, you better learn            Can we survive one more season
D|------------------------------------------------------------------------|
A|------------------------------------------------------------------------|
F|9-9-9-9-9-9-9-9-12-12-12-12-12-12-12-12-5-5-5-5-5-5-5-5-2-2-2-2-2-2-2-2-|
C|9-9-9-9-9-9-9-9-12-12-12-12-12-12-12-12-5-5-5-5-5-5-5-5-2-2-2-2-2-2-2-2-|  x3
G|7-7-7-7-7-7-7-7-10-10-10-10-10-10-10-10-3-3-3-3-3-3-3-3-0-0-0-0-0-0-0-0-|
D|------------------------------------------------------------------------|

Rhythm (3:26)
  Hold on                         Together
  Whoa                            Whoa
D|----------------------------------------------------------------|
A|----------------------------------------------------------------|
F|----------------5-5-5-5-5-5-5-5-----------------5-5-5-5-5-5-5~--|
C|2-2-2-2-2-2-2-2-5-5-5-5-5-5-5-5-2-2-2-2-2-2-2-2-5-5-5-5-5-5-5~--|  x2
G|2-2-2-2-2-2-2-2-3-3-3-3-3-3-3-3-2-2-2-2-2-2-2-2-3-3-3-3-3-3-3~--|
D|0-0-0-0-0-0-0-0-----------------0-0-0-0-0-0-0-0-----------------|

Lead (3:26)
D|----------------------------------------------------------------|
A|----------------------------------------------------------------|
F|----------------------------------------------------------------|
C|----5h7-----5h7-----5h7-----5h7-----5h7-----5h7-----5h7-----7^r-|  x2
G|----------------------------------------------------------------|
D|0-0-----0-0-----8-8-----8-8-----0-0-----0-0-----8-8-----8-8-----|

Outro
Rhythm   (3:40)
D|----------------------------------------------------------------|
A|----------------------------------------------------------------|
F|----------------------------------------------------------------|
C|2~~~~~~~--------------------------------------------------------|
G|2~~~~~~~--------------------------------------------------------|
D|0~~~~~~~--------------------------------------------------------|

Lead     (3:40)
D|----------------------------------------------------------------|
A|----------------------------------------------------------------|
F|----------------------------------------------------------------|
C|2~--------------------------------------------------------------|
G|2~--------------------------------------------------------------|
D|0~-0------------------------------------------------------------|
      tttttttttttttttttttttttttttttttttttttttttttttttttttt

Tablature Legend
----------------
~ Let it ring
\ Slide Down
/ Slide Up
^ Bend
r Release
t Tremolo picking
* Palm mute

(Time:Stamp) included to play along with album version.
Добавлено: 28.10.2013
Другие материалы по этой песне:
  • Аккорды и текст

Страница создана 28.10.2013
http://primanota.ru/die-mannequin/open-season-chords.htm
Привет, Гость.
Предлагаем пройти революционный курс по гитаре.
Подарок от PrimaNota.Ru, забирай!