PrimaNota.ru - самый крупный в мире бесплатный архив песенных текстов, аккордов, табулатур и нот


Die Mannequin - Guns Not Bombs - таба, видео

Регистрация Запомнить меня
Войти через:  Facebook Google Twitter Vk Yandex Mail.ru

Die Mannequin - Guns Not Bombs - таба, видео

Печатать
Просмотров: 88
Авторы: Care Failure, Jason Smith

               Guns Not Bombs - Die Mannequin - Fino + Bleed

Tabbed by: MCfromTMP

D Tuning    
             

Intro     (0:01)
D|----------------------------------------------------------------------------------------|
A|----------------------------------------------------------------------------------------|
F|11-11-11-11-11-11-11-11-----------------13-13-13-13-13-13-13-13-12-12-12-12-12-12-12-12-|
C|9--9--9--9--9--9--9--9--9-9-9-9-9-9-9-9-11-11-11-11-11-11-11-11-10-10-10-10-10-10-10-10-|
G|9--9--9--9--9--9--9--9--7-7-7-7-7-7-7-7-11-11-11-11-11-11-11-11-10-10-10-10-10-10-10-10-|
D|------------------------7-7-7-7-7-7-7-7-------------------------------------------------|


          (0:08)
D|----------------------------------------------------------------------------------------|
A|----------------------------------------------------------------------------------------|
F|11-11-11-11-11-11-11-11-----------------13-13-13-13-13-13-13-13-12-12-12-12-12-12-12-12-|
C|9--9--9--9--9--9--9--9--9-9-9-9-9-9-9-9-11-11-11-11-11-11-11-11-10-10-10-10-10-10-10-10-|
G|9--9--9--9--9--9--9--9--7-7-7-7-7-7-7-7-11-11-11-11-11-11-11-11-10-10-10-10-10-10-10-10-|
D|------------------------7-7-7-7-7-7-7-7-------------------------------------------------|


Verse 1   (0:15)
      Odious, I know                      It follows wherever I go
D|----------------------------------------------------------------|
A|----------------------------------------------------------------|
F|----------------------------------------------------------------|
C|6~~~~~~~~~~~~~~~------------------------------------------------|
G|6~~~~~~~~~~~~~~~------------------------------------------------|
D|4~~~~~~~~~~~~~~~------------------------------------------------|


          (0:22)
      Shadows kept in horror           Captured all over the floor
D|----------------------------------------------------------------|
A|----------------------------------------------------------------|
F|----------------------------------------------------------------|
C|----------------------------------------------------------------|
G|----------------------------------------------------------------|
D|4~~~~~~~~~~~~~~~------------------------------------------------|


          (0:28)
     When it's over I know  Never over, I'm told 
     Going to take us all   Catastrophic assault
D|--------------------------------------------------------|
A|--------------------------------------------------------|
F|--------------------------------------------------------|
C|----x-x-x---------x-x-x---------x-x-x-------------------|
G|----x-x-x-----2~--x-x-x---2-----x-x-x-----4~--4---------|
D|4~--x-x-x-2-4-----x-x-x-4---0~--x-x-x-0-2--------5~--5--|


          (0:34)
     Hated heart in a hole  Turning peace into gold
     Fatal fires grow       ah-whoa-oh-oh
D|--------------------------------------------------------|
A|--------------------------------------------------------|
F|--------------------------------------------------------|
C|----x-x-x---------x-x-x---------x-x-x-------------------|
G|----x-x-x-----2~--x-x-x---2-----x-x-x-----4~------------|
D|4~--x-x-x-2-4-----x-x-x-4---0~--x-x-x-0-2---------------|


Pre Chorus 1 (0:41)
  Infernal       legions         Twisted          regions
  Tragic         cruelty         Sadist           ruling
D|----------------------------------------------------------------|
A|----------------------------------------------------------------|
F|4-4-4-4-4-4-4-4-----------------6-6-6-6-6-6-6-6-5-5-5-5-5-5-5-5-|
C|4-4-4-4-4-4-4-4-2-2-2-2-2-2-2-2-6-6-6-6-6-6-6-6-5-5-5-5-5-5-5-5-|    x2
G|2-2-2-2-2-2-2-2-2-2-2-2-2-2-2-2-4-4-4-4-4-4-4-4-3-3-3-3-3-3-3-3-|
D|----------------0-0-0-0-0-0-0-0---------------------------------|


Chorus 1   (0:54)
  Our guns and raids Have gone on too late, Our bombs have saved A fatal brigade
  Our arms and graves Have gone on too late, Believe our prayer "Don't need you there"
D|----------------------------------------------------------------------------------------|
A|----------------------------------------------------------------------------------------|
F|11-11-11-11-11-11-11-11-----------------13-13-13-13-13-13-13-13-12-12-12-12-12-12-12-12-|
C|9--9--9--9--9--9--9--9--9-9-9-9-9-9-9-9-11-11-11-11-11-11-11-11-10-10-10-10-10-10-10-10-|    x2
G|9--9--9--9--9--9--9--9--7-7-7-7-7-7-7-7-11-11-11-11-11-11-11-11-10-10-10-10-10-10-10-10-|
D|------------------------7-7-7-7-7-7-7-7-------------------------------------------------|


Verse 2  (1:08)
         Barbarous, I know             It follows wherever I go 
D|-------------------------------------------------------------|
A|-------------------------------------------------------------|
F|-------------------------------------------------------------|
C|6~~~~~~~~~~~~~~~~~~~~~~~~~~~~~~------------------------------|
G|6~~~~~~~~~~~~~~~~~~~~~~~~~~~~~~------------------------------|
D|4~~~~~~~~~~~~~~~~~~~~~~~~~~~~~~------------------------------|


          (1:14)
         Feathered at the wrists       Bury my dead wish
D|-------------------------------------------------------------|
A|-------------------------------------------------------------|
F|-------------------------------------------------------------|
C|6-6-6~~~~~~~~~~~~~~~~~~~~~~~~~~------------------------------|
G|6-6-6~~~~~~~~~~~~~~~~~~~~~~~~~~------------------------------|
D|4-4-4~~~~~~~~~~~~~~~~~~~~~~~~~~------------------------------|
  * * 

          (1:21)
     When it's over I know    Never over, I'm told
     Going to take us all     Catastrophic assault
D|--------------------------------------------------------|
A|--------------------------------------------------------|
F|--------------------------------------------------------|
C|----x-x-x---------x-x-x---------x-x-x-------------------|
G|----x-x-x-----2~--x-x-x---2-----x-x-x-----4~--4---------|
D|4~--x-x-x-2-4-----x-x-x-4---0~--x-x-x-0-2--------5~--5--|


          (1:27)
      Hated heart in a hole   Turning peace into gold
      Fatal fires grow        ah-whoa-oh-oh
D|--------------------------------------------------------|
A|--------------------------------------------------------|
F|--------------------------------------------------------|
C|----x-x-x---------x-x-x---------x-x-x-------------------|
G|----x-x-x-----2~--x-x-x---2-----x-x-x-----4~------------|
D|4~--x-x-x-2-4-----x-x-x-4---0~--x-x-x-0-2---------------|


Pre Chorus 2 (1:34)
  Infernal       legions         Twisted          regions
  Tragic         cruelty         Sadist           ruling
D|----------------------------------------------------------------|
A|----------------------------------------------------------------|
F|4-4-4-4-4-4-4-4-----------------6-6-6-6-6-6-6-6-5-5-5-5-5-5-5-5-|
C|4-4-4-4-4-4-4-4-2-2-2-2-2-2-2-2-6-6-6-6-6-6-6-6-5-5-5-5-5-5-5-5-|    x2
G|2-2-2-2-2-2-2-2-2-2-2-2-2-2-2-2-4-4-4-4-4-4-4-4-3-3-3-3-3-3-3-3-|
D|----------------0-0-0-0-0-0-0-0---------------------------------|


Chorus 2   (1:47)
  Our guns and raids Have gone on too late, Our bombs have saved A fatal brigade
  Our arms and graves Have gone on too late, Believe our prayer "Don't need you there"
D|----------------------------------------------------------------------------------------|
A|----------------------------------------------------------------------------------------|
F|11-11-11-11-11-11-11-11-----------------13-13-13-13-13-13-13-13-12-12-12-12-12-12-12-12-|
C|9--9--9--9--9--9--9--9--9-9-9-9-9-9-9-9-11-11-11-11-11-11-11-11-10-10-10-10-10-10-10-10-|    x2
G|9--9--9--9--9--9--9--9--7-7-7-7-7-7-7-7-11-11-11-11-11-11-11-11-10-10-10-10-10-10-10-10-|
D|------------------------7-7-7-7-7-7-7-7-------------------------------------------------|


Bridge   (2:01)
  Have  you   seen  my    hoax
D|---------------------------------------------------|
A|---------------------------------------------------|
F|------4~-4-----------------------------------------|
C|6-6-6-4~-4--6~-6--2~-2--5--5-5--5-5--5--5-5--5-5-2-|
G|6-6-6-2~-2--6~-6--2~-2--5--5-5--5-5--5--5-5--5-5-2-|
D|4-4-4-------4~-4--0~-0--3--3-3--3-3--3--3-3--3-3-0-|


          (2:07)
  Heart-less  ho-   ly    ghost
D|---------------------------------------------------|
A|---------------------------------------------------|
F|------4~-4--------8~-8-----------------------------|
C|6-6-6-4~-4--6~-6--8~-8--5--5-5--5-5--5--5-5--5-5-2-|
G|6-6-6-2~-2--6~-6--6~-6--5--5-5--5-5--5--5-5--5-5-2-|
D|4-4-4-------4~-4--6~-6--3--3-3--3-3--3--3-3--3-3-0-|


          (2:14)
  Fa-   ded,  fain- ted,  close
D|---------------------------------------------------|
A|---------------------------------------------------|
F|------4~-4-----------------------------------------|
C|6-6-6-4~-4--6~-6--2~-2--5--5-5--5-5--5--5-5--5-5-2-|
G|6-6-6-2~-2--6~-6--2~-2--5--5-5--5-5--5--5-5--5-5-2-|
D|4-4-4-------4~-4--0~-0--3--3-3--3-3--3--3-3--3-3-0-|


          (2:20)
  War   with- out   a     home
D|--------------------------------------------------------|
A|--------------------------------------------------------|
F|------4~-4--------------6-6-6-6-6-6-6-6-5-5-5-5-5-5-5-5-|
C|6-6-6-4~-4--6~-6--2~-2--6-6-6-6-6-6-6-6-5-5-5-5-5-5-5-5-|
G|6-6-6-2~-2--6~-6--2~-2--4-4-4-4-4-4-4-4-3-3-3-3-3-3-3-3-|
D|4-4-4-------4~-4--0~-0----------------------------------|


Verse 3   (2:27)
D|---------------------------------------------------------|
A|---------------------------------------------------------|
F|---------------------------------------------------------|
C|6~~~~~~~~~~~~~~~~~~~~~~~~~~~~~~~-------------------------|
G|6~~~~~~~~~~~~~~~~~~~~~~~~~~~~~~~-------------------------|
D|4~~~~~~~~~~~~~~~~~~~~~~~~~~~~~~~-------------------------|


          (2:40)
     When it's over I know  Never over, I'm told
     Going to take us all   Catastrophic assault
D|--------------------------------------------------------|
A|--------------------------------------------------------|
F|--------------------------------------------------------|
C|----x-x-x---------x-x-x---------x-x-x-------------------|
G|----x-x-x-----2~--x-x-x---2-----x-x-x-----4~--4---------|
D|4~--x-x-x-2-4-----x-x-x-4---0~--x-x-x-0-2--------5~--5--|


          (2:47)
     Hated heart in a hole     Turning peace into gold
     Fatal fires grow          ah-whoa-oh-oh
D|--------------------------------------------------------|
A|--------------------------------------------------------|
F|--------------------------------------------------------|
C|----x-x-x---------x-x-x---------x-x-x-------------------|
G|----x-x-x-----2~--x-x-x---2-----x-x-x-----4~------------|
D|4~--x-x-x-2-4-----x-x-x-4---0~--x-x-x-0-2---------------|


Pre Chorus 3 (2:53)
  Infernal       legions         Twisted          regions
  Tragic         cruelty         Sadist           ruling
D|----------------------------------------------------------------|
A|----------------------------------------------------------------|
F|4-4-4-4-4-4-4-4-----------------6-6-6-6-6-6-6-6-5-5-5-5-5-5-5-5-|
C|4-4-4-4-4-4-4-4-2-2-2-2-2-2-2-2-6-6-6-6-6-6-6-6-5-5-5-5-5-5-5-5-|    x2
G|2-2-2-2-2-2-2-2-2-2-2-2-2-2-2-2-4-4-4-4-4-4-4-4-3-3-3-3-3-3-3-3-|
D|----------------0-0-0-0-0-0-0-0---------------------------------|


Chorus 3   (3:07)
  Our guns and raids Have gone on too late, Our bombs have saved A fatal brigade
  Our arms and graves Have gone on too late, Believe our prayer "Don't need you there"
D|----------------------------------------------------------------------------------------|
A|----------------------------------------------------------------------------------------|
F|11-11-11-11-11-11-11-11-----------------13-13-13-13-13-13-13-13-12-12-12-12-12-12-12-12-|
C|9--9--9--9--9--9--9--9--9-9-9-9-9-9-9-9-11-11-11-11-11-11-11-11-10-10-10-10-10-10-10-10-|    x2
G|9--9--9--9--9--9--9--9--7-7-7-7-7-7-7-7-11-11-11-11-11-11-11-11-10-10-10-10-10-10-10-10-|
D|------------------------7-7-7-7-7-7-7-7-------------------------------------------------|


Outro     (3:20)
  Don't need you there
D|---------------------------------------------------------------------|
A|---------------------------------------------------------------------|
F|12-12-12-12-12-12-12-12----------------------------------------------|
C|10-10-10-10-10-10-10-10-6~~~~~~~~~~~~~~~~~~~~~~~~~~~~~~~-------------|
G|10-10-10-10-10-10-10-10-6~~~~~~~~~~~~~~~~~~~~~~~~~~~~~~~-------------|
D|------------------------4~~~~~~~~~~~~~~~~~~~~~~~~~~~~~~~-------------|


Tablature Legend
----------------
~     Vibrato/ Let it ring
X     Mute note
***   Palm mute

(Time:Stamp) included to play along with album version.
Добавлено: 14.06.2013
Другие материалы по этой песне:
  • Аккорды и текст

Страница создана 14.06.2013
http://primanota.ru/die-mannequin/guns-not-bombs-chords.htm
Привет, Гость.
Предлагаем пройти революционный курс по гитаре.
Подарок от PrimaNota.Ru, забирай!