PrimaNota.ru - самый крупный в мире бесплатный архив песенных текстов, аккордов, табулатур и нот


Die Mannequin - Children With Machetes - таба, видео

Регистрация Запомнить меня
Войти через:  Facebook Google Twitter Vk Yandex Mail.ru

Die Mannequin - Children With Machetes - таба, видео

Печатать
Просмотров: 88
             Children With Machetes - Die Mannequin - Danceland

Tabbed by: MCfromTMP

D Tuning    
          

Intro     (0:00)
D|------------------------------------------------|
A|------------------------------------------------|
F|------------------------------------------------|
C|------------------------8-7---------------------|
G|7~----7~----7~----7~----8-7----7~----7~----7~---|
D|---0-----0-----0-----0--6-5-0-----0-----0-----0-|


Verse 1   (0:07)
    military minds want to play my game
    skeletons & crimes crucify my name
D|------------------------------------------------|
A|------------------------------------------------|
F|------------------------------------------------|
C|5~----5~----4~----4~----------------------------|    x2
G|------------------------7~----7~----5/7----7~---|
D|---0-----0-----0-----0-----0-----0------0-----0-|


Pre Chrous 1 (0:21)
  godless battles piled on everybody, open up your eyes
D|---------------------------------------------------------------|
A|---------------------------------------------------------------|
F|---------------------------------------------------------------|
C|-------------------------------------------5-------------------|
G|--------------5/7-----5/7-------/8-8-8-8-8-----5/7-----5/7-----|
D|1-1-1-1-1/3-------0-0-----0-0----------------------0-0-----0-0-|


          (0:28)
  to venom threats & children with machetes, fighting for their lives
D|---------------------------------------------------------------|
A|---------------------------------------------------------------|
F|--------------------------------5-5--5-5--7--9~-9~-9~-9~-------|
C|--------------------------------5-5--5-5--7--------------------|
G|--------------5/7-----5/7-------3-3--3-3--5--------------------|
D|1-1-1-1-1/3-------0-0-----0-0-----------------------------/15\-|


Chorus 1  (0:34)
  what might be going on in your head?  it might be the gun in your hand
       (i don't want to know)                (i don't want to know)
D|-------------------------------------------------------------------|
A|-------------------------------------------------------------------|
F|-------------------------------------------------------------------|
C|-------------------------------------------------------------------|
G|------0-------3---0-3-0---0-0---7-7-7-7-7-7-7-0---0-0---3---3-/10\-|
D|0-0-3---3-0-3------------------------------------------------------|


          (0:41)
  what might be going on left unsaid  well it might be the gun to your head
       (i don't want to know)                 (i don't want to know)
D|-------------------------------------------------------------------|
A|-------------------------------------------------------------------|
F|-------------------------------------------------------------------|
C|-------------------------------------------------------------------|
G|------0-------3---0-3-0---0-0---7-7-7-7-7-7-7-0---0-0---3---5------|
D|0-0-3---3-0-3------------------------------------------------------|


          (0:48)
D|-------------------------------------------------|
A|-------------------------------------------------|
F|-------------------------------------------------|
C|-------------------------8-7---------------------|
G|5/7----7~----7~----7~----8-7----7~----7~----7~---|
D|----0-----0-----0-----0--6-5-0-----0-----0-----0-|


Verse 2   (0:55)
  all my friends are knives, suicide crusadessss
  wanna be my knife, & i'll be your chain
D|------------------------------------------------|
A|------------------------------------------------|
F|------------------------------------------------|
C|5~----5~----4~----4~----------------------------|    x2
G|------------------------7~----7~----5/7----7~---|
D|---0-----0-----0-----0-----0-----0------0-----0-|


Pre Chrous 2 (1:09)
  graveyard girls & homicidal makeout's, anthem for the lost
D|---------------------------------------------------------------|
A|---------------------------------------------------------------|
F|---------------------------------------------------------------|
C|-------------------------------------------5-------------------|
G|--------------5/7-----5/7-------/8-8-8-8-8-----5/7-----5/7-----|
D|1-1-1-1-1/3-------0-0-----0-0----------------------0-0-----0-0-|


          (1:16)
  your drugs in the basement paralyze the nation, get 'em while they're young
D|---------------------------------------------------------------|
A|---------------------------------------------------------------|
F|--------------------------------5-5--5-5--7--9~-9~-9~-9~-------|
C|--------------------------------5-5--5-5--7--------------------|
G|--------------5/7-----5/7-------3-3--3-3--5--------------------|
D|1-1-1-1-1/3-------0-0-----0-0-----------------------------/15\-|


Chorus 2  (1:22)
  what might be going on in your head?  it might be the gun to you head
       (i don't want to know)                (i don't want to know)
D|-------------------------------------------------------------------|
A|-------------------------------------------------------------------|
F|-------------------------------------------------------------------|
C|-------------------------------------------------------------------|
G|------0-------3---0-3-0---0-0---7-7-7-7-7-7-7-0---0-0---3---3-/10\-|
D|0-0-3---3-0-3------------------------------------------------------|


          (1:29)
  what might be going on left unsaid  well it might be the gun in your hand
       (i don't want to know)                 (i don't want to know)
D|-------------------------------------------------------------------|
A|-------------------------------------------------------------------|
F|--------------------------------------------------------12---12----|
C|--------------------------------------------------------12---12----|
G|------0-------3---0-3-0---0-0---7-7-7-7-7-7-7-0---0-0---10---10----|
D|0-0-3---3-0-3------------------------------------------------------|


Rhythm Under Solo (1:36)
D|----------------------------------------------------------------|
A|----------------------------------------------------------------|
F|5-5-5-5-5-5-5-2---2-2-2---2-2---5-5-5-5-5-5-5-2---2-2-2---2-2---|
C|5-5-5-5-5-5-5-2---2-2-2---2-2---5-5-5-5-5-5-5-2---2-2-2---2-2---|
G|3-3-3-3-3-3-3-0---0-0-0---0-0---3-3-3-3-3-3-3-0---0-0-0---0-0---|
D|----------------------------------------------------------------|


          (1:43)
D|----------------------------------------------------------------|
A|----------------------------------------------------------------|
F|5-5-5-5-5-5-5-2---2-2-2---2-2---5-5-5-5-5-5-5-5-7-7-7-7-7-7-7-7-|
C|5-5-5-5-5-5-5-2---2-2-2---2-2---5-5-5-5-5-5-5-5-7-7-7-7-7-7-7-7-|
G|3-3-3-3-3-3-3-0---0-0-0---0-0---3-3-3-3-3-3-3-3-5-5-5-5-5-5-5-5-|
D|----------------------------------------------------------------|


Solo      (1:36)
D|12-12--------------------------------12-12-----------------------------|
A|------12-----------------------------------12--------------------------|
F|---------14-12~-14~-12-14^-14-12~-12----------14-12~-14~-12-14^-14~-12-|
C|-----------------------------------------------------------------------|
G|-----------------------------------------------------------------------|
D|-----------------------------------------------------------------------|


Solo      (1:43)
D|---12-12--------------------------------12-12---------------------------------|
A|---------12-----------------------------------12------------------------------|
F|12----------14-12~-14~-12-14^-14-12~-12----------14-12~-14~-12-14^-14~-14^~~~-|
C|------------------------------------------------------------------------------|
G|------------------------------------------------------------------------------|
D|------------------------------------------------------------------------------|


Bridge   (1:50)
  the kids & the stench of blood on one another, 
  shooting till they run out of rounds
D|-----------------------------------------------------------------|
A|-----------------------------------------------------------------|
F|-----------------------------------------------------------------|
C|3~~~~~~~~~~---2~~~~~~~~~~~~~~---3~~~~~~~~~~---2~~~~~~~~~~~~~~----|
G|3~~~~~~~~~~---2~~~~~~~~~~~~~~---3~~~~~~~~~~---2~~~~~~~~~~~~~~----|
D|1~~~~~~~~~~---0~~~~~~~~~~~~~~---1~~~~~~~~~~---0~~~~~~~~~~~~~~----|


          (1:57)
  the kids & their friends have cyanide expressions,
  bodies pile up on the ground
D|-----------------------------------------------------------------|
A|-----------------------------------------------------------------|
F|-----------------------------------------------------------------|
C|3~~~~~~~~~~---2~~~~~~~~~~~~~~---3-3-3-3-3-3-3-3-2-2-2-2-2--------|
G|3~~~~~~~~~~---2~~~~~~~~~~~~~~---3-3-3-3-3-3-3-3-2-2-2-2-2--------|
D|1~~~~~~~~~~---0~~~~~~~~~~~~~~---1-1-1-1-1-1-1-1-0-0-0-0-0--------|
                                  * * * * * * * * * * * *   


          (2:04)
  the kids & their friends have turned on one another,
  why couldn't you just see this till now
D|-----------------------------------------------|
A|-----------------------------------------------|
F|-----------------------------------------------|
C|3~-3--3~-3--2~-2--2~-2--3~-3--3~-3--2~-2--2~-2-|
G|3~-3--3~-3--2~-2--2~-2--3~-3--3~-3--2~-2--2~-2-|
D|1~-1--1~-1--0~-0--0~-0--1~-1--1~-1--0~-0--0~-0-|


          (2:10)
  the 'king' is dead & we all want revenge 
  go on and on and on
D|-------------------------------------------------------|
A|-------------------------------------------------------|
F|------------------------5-5--5-5--7--9~-9~-9~-9~-------|
C|3~-3--3~-3--2~-2--2~-2--5-5--5-5--7--------------------|
G|3~-3--3~-3--2~-2--2~-2--3-3--3-3--5--------------------|
D|1~-1--1~-1--0~-0--0~-0----------------------------/15\-|


Chorus 3  (2:17)
  what might be going on in your head, well it might be a gun in your hand
  what might be going on left unsaid, well it might be my gun to your head
D|-------------------------------------------------------------------|
A|-------------------------------------------------------------------|
F|-------------------------------------------------------------------|
C|-------------------------------------------------------------------|    x3
G|------0-------3---0-3-0---0-0---7-7-7-7-7-7-7-0---0-0---3---3-/10\-|
D|0-0-3---3-0-3------------------------------------------------------|


Lead Guitar (2:31)
  what might be going on in your head???
  what might be going on in your head
D|----------------------------------------------------------------|
A|5~~~~~~~~~~~~~------7-8---8-7---5~~~~~~~~~~~~~----7-8---8-7-----|
F|----------------------------------------------------------------|
C|----------------------------------------------------------------|
G|----------------------------------------------------------------|
D|----------------------------------------------------------------|


          (2:38)
  what might be going on in your head???
  well it might be the gun to your head             to your head
D|-------------------------------------------------------------------|
A|-------------------------------------------------------------------|
F|-------------------------------------------------------------------|
C|-------------------------------------------------------------------|
G|------0-------3---0-3-0---0-0---7-7-7-7-7-7-7-0---0-0---3---5------|
D|0-0-3---3-0-3------------------------------------------------------|


Lead Guitar (2:38)
D|----------------------------------------------------------------|
A|5~~~~~~~~~~~~~------7-8---8-7---5~~~~~~~~~~~~~------------------|
F|----------------------------------------------------------------|
C|----------------------------------------------------------------|
G|--------------------------------------------------0-0---3---5---|
D|----------------------------------------------------------------|


Outro    (2:45)
D|--------------------------------------------------------|
A|--------------------------------------------------------|
F|--------------------------------------------------------|
C|-------------------------8-7----------------------7-8---|
G|5/7----7~----7~----7~----8-7----7~----7~----7~----7-8---|
D|----0-----0-----0-----0--6-5-0-----0-----0-----0--5-6-0-|


          (2:52)
D|-------------------------------------------------|
A|-------------------------------------------------|
F|-------------------------------------------------|
C|------------------8-7----------------------8-7-2-|
G|7~----7~----7~----8-7----7~----7~----7~----8-7-2-|
D|---0-----0-----0--6-5-0-----0-----0-----0--6-5-0-|



Tablature Legend
----------------
~     Vibrato/ Let it ring
/     Slide Up
\     Slide Down
^     Bend
***   Palm mute

(Time:Stamp) included to play along with album version.
Добавлено: 05.07.2013
Другие материалы по этой песне:
  • Аккорды и текст

Страница создана 05.07.2013
http://primanota.ru/die-mannequin/children-with-machetes-chords.htm
Привет, Гость.
Предлагаем пройти революционный курс по гитаре.
Подарок от PrimaNota.Ru, забирай!