PrimaNota.ru - самый крупный в мире бесплатный архив песенных текстов, аккордов, табулатур и нот


Die Mannequin - Bad Medicine - таба, видео

Регистрация Запомнить меня
Войти через:  Facebook Google Twitter Vk Yandex Mail.ru

Die Mannequin - Bad Medicine - таба, видео

Печатать
Просмотров: 110
Авторы: Care Failure

D Tuning         Bad Medicine - Die Mannequin - Fino + Bleed

Intro
D|-------------------------------- --------------------------------|
A|-------------------------------- --------------------------------|
F|-------------------------------- --------------------------------|
C|7--7---77-7-77-5-5-5-55-5-55555- 7--7-77-7-77777-5-5-5-5-6-6-6-6-|
G|7--7---77-7-77-5-5-5-55-5-55555- 7--7-77-7-77777-5-5-5-5-6-6-6-6-|
D|5--5---55-5-55-3-3-3-33-3-33333- 5--5-55-5-55555-3-3-3-3-4-4-4-4-|

Solo 1
D|-------------------------------- --------------------------------|
A|-------------------------------- --------------------------------|
F|-------------------------------- -------------5-7-7b-7b-7-5~-----|
C|-------------------------------- 7~7-7-7~-7-7--------------------|
G|-------------------------------- --------------------------------|
D|-------------------------------- --------------------------------|


Verse 1
D|------------------------ ------------------------|
A|------------------------ ------------------------|
F|-------------------5---- -------------------5----|
C|7-7--55566667-7-XXX5-X5- 7-7--55566667-7-XXX5-X5-|
G|7-7--55566667-7-XXX3-X5- 7-7--55566667-7-XXX3-X5-|
D|5-5--33344445-5-XXX--X3- 5-5--33344445-5-XXX--X3-|

D|------------------------ ------------------------|
A|------------------------ ------------------------|
F|-------------------5---- -------------------5----|
C|7-7--55566667-7-XXX5-X5- 7-7--55566667-7-XXX5-X5-|
G|7-7--55566667-7-XXX3-X5- 7-7--55566667-7-XXX3-X5-|
D|5-5--33344445-5-XXX--X3- 5-5--33344445-5-XXX--X3-|

Chorus 1
D|---------------------------------- ----------------------------------|
A|---------------------------------- ----------------------------------|
F|---------------------------------- ----------------------------------|
C|7-7-7-77-7-77777-5-5-5-55-5-55555- 7-7-7-77-7-77777-5-5-5-55-5-55555-|
G|7-7-7-77-7-77777-5-5-5-55-5-55555- 7-7-7-77-7-77777-5-5-5-55-5-55555-|
D|5-5-5-55-5-55555-3-3-3-33-3-33333- 5-5-5-55-5-55555-3-3-3-33-3-33333-|

D|---------------------------------- ---------------------------------|
A|---------------------------------- ---------------------------------|
F|---------------------------------- ---------------------------------|
C|7-7-7-77-7-77777-5-5-5-55-5-55555- 7-7-7-77-7-77777-5-5-5-5-6-6-6-6-|
G|7-7-7-77-7-77777-5-5-5-55-5-55555- 7-7-7-77-7-77777-5-5-5-5-6-6-6-6-|
D|5-5-5-55-5-55555-3-3-3-33-3-33333- 5-5-5-55-5-55555-3-3-3-3-4-4-4-4-|

Lead Guitar Over Chorus
D|--------------------------------------------|
A|-------------------------------8------------|
F|---------5-7-7b-7b-7-5---5-7-7b-7br-5--5----|
C|7~-7~~-7---------------7-------------7---7~-|
G|--------------------------------------------|
D|--------------------------------------------|

Verse 2
D|------------------------ ------------------------|
A|------------------------ ------------------------|
F|-------------------5---- -------------------5----|
C|7-7--55566667-7-XXX5-X5- 7-7--55566667-7-XXX5-X5-|
G|7-7--55566667-7-XXX3-X5- 7-7--55566667-7-XXX3-X5-|
D|5-5--33344445-5-XXX--X3- 5-5--33344445-5-XXX--X3-|

D|------------------------ ------------------------|
A|------------------------ ------------------------|
F|-------------------5---- -------------------5----|
C|7-7--55566667-7-XXX5-X5- 7-7--55566667-7---X5-X5-|
G|7-7--55566667-7-XXX3-X5- 7-7--55566667-7---X3-X5-|
D|5-5--33344445-5-XXX--X3- 5-5--33344445-5---X--X3-|
                              pm******

Chorus 2
D|---------------------------------- ----------------------------------|
A|---------------------------------- ----------------------------------|
F|---------------------------------- ----------------------------------|
C|7-7-7-77-7-77777-5-5-5-55-5-55555- 7-7-7-77-7-77777-5-5-5-55-5-55555-|
G|7-7-7-77-7-77777-5-5-5-55-5-55555- 7-7-7-77-7-77777-5-5-5-55-5-55555-|
D|5-5-5-55-5-55555-3-3-3-33-3-33333- 5-5-5-55-5-55555-3-3-3-33-3-33333-|

D|---------------------------------- ---------------------------------|
A|---------------------------------- ---------------------------------|
F|---------------------------------- ---------------------------------|
C|7-7-7-77-7-77777-5-5-5-55-5-55555- 7-7-7-77-7-77777-5-5-5-5-6-6-6-6-|
G|7-7-7-77-7-77777-5-5-5-55-5-55555- 7-7-7-77-7-77777-5-5-5-5-6-6-6-6-|
D|5-5-5-55-5-55555-3-3-3-33-3-33333- 5-5-5-55-5-55555-3-3-3-3-4-4-4-4-|

Lead Guitar Over Chorus
D|--------------------------------------------|
A|-------------------------------8------------|
F|---------5-7-7b-7b-7-5---5-7-7b-7br-5--5----|
C|7~-7~~-7---------------7-------------7---7~-|
G|--------------------------------------------|
D|--------------------------------------------|

Middle Eight
D|---------------------------------- -------------------------------------|
A|---------------------------------- -------------------------------------|
F|---------------------------------- -------------------------------------|
C|---------------------------------- -------------------------------------|
G|---------------------------------- -------------------------------------|
D|5-5-5-55-88-8-88-3-3-3-33-11-1-XX- 5-5-5-55-88-8-88-3-3-3-33-1010-10-XX-|

D|---------------------------------- -------------------------------------------------|
A|---------------------------------- -------------------------------------------------|
F|---------55-5-55------------------ ---------55-5-55-4-4-4-4-4-4-4-4-4-4-4-4-4-4-4-4-|
C|7-7-7-77-55-5-55-5-5-5-55-33-3-XX- 7-7-7-77-55-5-55-4-4-4-4-4-4-4-4-4-4-4-4-4-4-4-4-|
G|7-7-7-77-33-3-33-5-5-5-55-33-3-XX- 7-7-7-77-33-3-33-2-2-2-2-2-2-2-2-2-2-2-2-2-2-2-2-|
D|5-5-5-55---------3-3-3-33-11-1-XX- 5-5-5-55-----------------------------------------|

Rhythm Under Solo
D|---------------------------------- ----------------------------------|
A|---------------------------------- ----------------------------------|
F|---------------------------------- ----------------------------------|
C|7-7-7-77-7-77777-5-5-5-55-5-55555- 7-7-7-77-7-77777-5-5-5-55-5-55555-|
G|7-7-7-77-7-77777-5-5-5-55-5-55555- 7-7-7-77-7-77777-5-5-5-55-5-55555-|
D|5-5-5-55-5-55555-3-3-3-33-3-33333- 5-5-5-55-5-55555-3-3-3-33-3-33333-|

D|------------------------------------------------------|
A|------------------------------------------------------|
F|---------5-7-9--9-7-5---5-7-9--12-7-5---5-------------|
C|7--7---7-5-7-9--9-7-5-7-5-7-9--12-7-5-7-5-7-5-5-5-5-6-|
G|7--7---7-3-5-7--7-5-3-7-3-5-7--10-5-3-7-3-7-5-5-5-5-6-|
D|5--5---5--------------5---------------5---5-3-3-3-3-4-|

Solo 2
D|---------------------------------------------- ------------------------------------------------|
A|----------------------------------8----------- ------------------------------------------------|
F|------------5-7-7b-7b-7-5---5-7-7b-7br-5--5--- -----------------------------------------12-14~-|
C|7~-7~-7-7-7---------------7-------------7---7- 7-7-7-7-/10-10-10-10-/12-12-12-12-/14-14--------|
G|---------------------------------------------- ------------------------------------------------|
D|---------------------------------------------- ------------------------------------------------|

D|--------------------------------------15-----------------12--12--12--12--12---|
A|------13-15-15b-15b-15-13----13-15-15b--15br-13----13----15b-15b-15b-15b-15br-|
F|14-14---------------------14--------------------14----14----------------------|
C|------------------------------------------------------------------------------|
G|------------------------------------------------------------------------------|
D|------------------------------------------------------------------------------|

Chorus 3
D|---------------------------------- ----------------------------------|
A|---------------------------------- ----------------------------------|
F|---------------------------------- ----------------------------------|
C|7-7-7-77-7-77777-5-5-5-55-5-55555- 7-7-7-77-7-77777-5-5-5-55-5-55555-|
G|7-7-7-77-7-77777-5-5-5-55-5-55555- 7-7-7-77-7-77777-5-5-5-55-5-55555-|
D|5-5-5-55-5-55555-3-3-3-33-3-33333- 5-5-5-55-5-55555-3-3-3-33-3-33333-|

D|---------------------------------- ---------------------------------|
A|---------------------------------- ---------------------------------|
F|---------------------------------- ---------------------------------|
C|7-7-7-77-7-77777-5-5-5-55-5-55555- 7-7-7-77-7-77777-5-5-5-5-6-6-6-6-|
G|7-7-7-77-7-77777-5-5-5-55-5-55555- 7-7-7-77-7-77777-5-5-5-5-6-6-6-6-|
D|5-5-5-55-5-55555-3-3-3-33-3-33333- 5-5-5-55-5-55555-3-3-3-3-4-4-4-4-|

Lead Guitar Over Chorus
D|--------------------------------------------|
A|-------------------------------8------------|
F|---------5-7-7b-7b-7-5---5-7-7b-7br-5--5----|
C|7~-7~~-7---------------7-------------7---7~-|
G|--------------------------------------------|
D|--------------------------------------------|

Outro
D|------------------------ ------------------------|
A|------------------------ ------------------------|
F|-------------------5---- -------------------5----|
C|7-7--55566667-7-XXX5-X5- 7-7--55566667-7-XXX5-X5-|
G|7-7--55566667-7-XXX3-X5- 7-7--55566667-7-XXX3-X5-|
D|5-5--33344445-5-XXX--X3- 5-5--33344445-5-XXX--X3-|

pm***  Palm Mute
X      Mute Note
b           Bend
br  Bend Release
Добавлено: 06.07.2013
Другие материалы по этой песне:
  • Аккорды и текст

Страница создана 06.07.2013
http://primanota.ru/die-mannequin/bad-medicine-chords.htm
Привет, Гость.
Предлагаем пройти революционный курс по гитаре.
Подарок от PrimaNota.Ru, забирай!