PrimaNota.ru - самый крупный в мире бесплатный архив песенных текстов, аккордов, табулатур и нот


Die Mannequin - Away - таба, видео

Регистрация Запомнить меня
Войти через:  Facebook Google Twitter Vk Yandex Mail.ru

Die Mannequin - Away - таба, видео

Печатать
Просмотров: 109
Уроки эстрадного вокала в Санкт-Петербурге
                Away - Die Mannequin - Danceland

Tabbed by: MCfromTMP

D Tuning    
             

Intro     (0:00)
D|-------------------------------------------------------------|
A|-------------------------------------------------------------|
F|-----------------------------3-3-3-3-3-3-3-3-3-3-3-3-3-5-5-5-|
C|-----------------------------3-3-3-3-3-3-3-3-3-3-3-3-3-5-5-5-|
G|--5-5---5\-------------------1-1-1-1-1-1-1-1-1-1-1-1-1-3-3-3-|
D|0-----0----0-1-0-1-1-0-1-1-0---------------------------------|

          (0:06)
D|------------------------------|
A|------------------------------|
F|------------------------------|
C|------------------------------|
G|--5-5---5\--------------------|
D|0-----0----0-1-0-1-1-0-1-1-0--|

Verse 1   (0:09)
  ashes                       to  wrists
  money$$                   can't fix 
D|----------------------------------------------------------------|
A|----------------------------------------------------------------|
F|--------------------------------7-7-7-7-7-7-7-7-7-7-7-7-7-7-7-7-|
C|3-3-3-3-3-3-3-3-3-3-3-3-3-3-3-3-7-7-7-7-7-7-7-7-7-7-7-7-7-7-7-7-|    x2
G|3-3-3-3-3-3-3-3-3-3-3-3-3-3-3-3-5-5-5-5-5-5-5-5-5-5-5-5-5-5-5-5-|
D|1-1-1-1-1-1-1-1-1-1-1-1-1-1-1-1---------------------------------|
  * * * * * * * * * * * * * * * * * * * * * * * * * * * * * * * *

          (0:22)
  red     light               denile                       while 
D|----------------------------------------------------------------|
A|----------------------------------------------------------------|
F|3-3-3-3-3-3-3-3-3-3-3-3-3-3-3-3---------------------------------|
C|3-3-3-3-3-3-3-3-3-3-3-3-3-3-3-3-5-5-5-5-5-5-3-3-3-3-3-3-5-5-5-5-|
G|1-1-1-1-1-1-1-1-1-1-1-1-1-1-1-1-5-5-5-5-5-5-3-3-3-3-3-3-5-5-5-5-|
D|--------------------------------3-3-3-3-3-3-1-1-1-1-1-1-3-3-3-3-|
  * * * * * * * * * * * * * * * * * * * * * * * * * * * * * * * *

          (0:28)
  she         grabs       her age          off       the floor
D|----------------------------------------------------------------|
A|----------------------------------------------------------------|
F|3-3-3-3-3-3-3-3-3-3-3-3-3-3-3-3-5-5-5-5-5-5-5-5-6-6-6-6-6-6-6-6-|
C|3-3-3-3-3-3-3-3-3-3-3-3-3-3-3-3-5-5-5-5-5-5-5-5-6-6-6-6-6-6-6-6-|
G|1-1-1-1-1-1-1-1-1-1-1-1-1-1-1-1-3-3-3-3-3-3-3-3-4-4-4-4-4-4-4-4-|
D|----------------------------------------------------------------|
  * * * * * * * * * * * * * * * * * * * * * * * * * * * *


Chorus 1  (0:35)
  you're almost 20 and now you wanna give it away, a-way-ay  ay-ay
D|----------------------------------------------------------------|
A|----------------------------------------------------------------|
F|--------------------------------3-3-3-3-3-3-3-3-3-3-3-3-3-5-5-5-|
C|--------------------------3-3-2-3-3-3-3-3-3-3-3-3-3-3-3-3-5-5-5-|
G|--------------------------3-3-2-1-1-1-1-1-1-1-1-1-1-1-1-1-3-3-3-|
D|--------------------------1-1-0---------------------------------|

          (0:41)
  you think you're ready & now, you wanna give it away, a-way-ay oh-oh
  the boys are waiting and now, you wanna give it away, a-way-ay ay-ay
  You're just a baby and now, you're gunna give it away, a-way-ay oh-oh
D|----------------------------------------------------------------|
A|----------------------------------------------------------------|
F|--------------------------------3-3-3-3-3-3-3-3-3-3-3-3-3-5-5-5-|
C|--------------------------------3-3-3-3-3-3-3-3-3-3-3-3-3-5-5-5-|    x3
G|--5-5---5\----------------------1-1-1-1-1-1-1-1-1-1-1-1-1-3-3-3-|
D|0-----0-----0-1---1-1-0-1-1-0-----------------------------------|

          (1:00)
  a-way-ay oh-oh, a-way-ay oh-oh
D|------------------------------|
A|------------------------------|
F|------------------------------|
C|------------------------------|
G|--5-5---5\--------------------|
D|0-----0-----0-1-0-1-1-0-1-1-0-|

Verse 2   (1:03)
  fascists                to      fists
  church      of          the     missed
D|----------------------------------------------------------------|
A|----------------------------------------------------------------|
F|--------------------------------7-7-7-7-7-7-7-7-7-7-7-7-7-7-7-7-|
C|3-3-3-3-3-3-3-3-3-3-3-3-3-3-3-3-7-7-7-7-7-7-7-7-7-7-7-7-7-7-7-7-|    x2
G|3-3-3-3-3-3-3-3-3-3-3-3-3-3-3-3-5-5-5-5-5-5-5-5-5-5-5-5-5-5-5-5-|
D|1-1-1-1-1-1-1-1-1-1-1-1-1-1-1-1---------------------------------|
  * * * * * * * * * * * * * * * * * * * * * * * * * * * * * * * *

          (1:16)
  girls     born        for       crime,      baby
D|----------------------------------------------------------------|
A|----------------------------------------------------------------|
F|3-3-3-3-3-3-3-3-3-3-3-3-3-3-3-3---------------------------------|
C|3-3-3-3-3-3-3-3-3-3-3-3-3-3-3-3-5-5-5-5-5-5-3-3-3-3-3-3-5-5-5-5-|
G|1-1-1-1-1-1-1-1-1-1-1-1-1-1-1-1-5-5-5-5-5-5-3-3-3-3-3-3-5-5-5-5-|
D|--------------------------------3-3-3-3-3-3-1-1-1-1-1-1-3-3-3-3-|
  * * * * * * * * * * * * * * * * * * * * * * * * * * * * * * * *

          (1:22)
  not      kept         in        cages               to die
D|----------------------------------------------------------------|
A|----------------------------------------------------------------|
F|3-3-3-3-3-3-3-3-3-3-3-3-3-3-3-3-5-5-5-5-5-5-5-5-6-6-6-6-6-6-6-6-|
C|3-3-3-3-3-3-3-3-3-3-3-3-3-3-3-3-5-5-5-5-5-5-5-5-6-6-6-6-6-6-6-6-|
G|1-1-1-1-1-1-1-1-1-1-1-1-1-1-1-1-3-3-3-3-3-3-3-3-4-4-4-4-4-4-4-4-|
D|----------------------------------------------------------------|
  * * * * * * * * * * * * * * * * * * * * * * * * * * * *


Chorus 2  (1:28)
  you're only 20, and now  you wanna give it away, a-way-ay ay-ay
  your body's ready, & now you're gunna give it away, a-way-ay oh-oh
  your arms around him & now you wanna give it away, a-way-ay ay-ay
  you're barely 20 & now you're gunna throw it away, and she says, 
D|----------------------------------------------------------------|
A|----------------------------------------------------------------|
F|--------------------------------3-3-3-3-3-3-3-3-3-3-3-3-3-5-5-5-|
C|--------------------------------3-3-3-3-3-3-3-3-3-3-3-3-3-5-5-5-|    x4
G|--5-5---5\----------------------1-1-1-1-1-1-1-1-1-1-1-1-1-3-3-3-|
D|0-----0-----0-1---1-1-0-1-1-0-----------------------------------|

Middle Eight (1:54)
         "i'm born,      i'm sold        chasing,        fading
          i'm al-        ready           a ghost,        save me."
D|----------------------------------------------------------------|
A|----------------------------------------------------------------|
F|7-7-7-7-7-7-7-7-7-7-7-7-7-7-7-7-5-5-5-5-5-5-5-5-5-5-5-5-5-5-5-5-|
C|7-7-7-7-7-7-7-7-7-7-7-7-7-7-7-7-5-5-5-5-5-5-5-5-5-5-5-5-5-5-5-5-|    x2
G|5-5-5-5-5-5-5-5-5-5-5-5-5-5-5-5-3-3-3-3-3-3-3-3-3-3-3-3-3-3-3-3-|
D|----------------------------------------------------------------|

          (2:06)
  don't         go        &       die         on          me
D|----------------------------------------------------------------|
A|----------------------------------------------------------------|
F|3-3-3-3-3-3-3-3-3-3-3-3-3-3-3-3---------------------------------|
C|3-3-3-3-3-3-3-3-3-3-3-3-3-3-3-3-5-5-5-5-5-5-3-3-3-3-3-3-5-5-5-5-|
G|1-1-1-1-1-1-1-1-1-1-1-1-1-1-1-1-5-5-5-5-5-5-3-3-3-3-3-3-5-5-5-5-|
D|--------------------------------3-3-3-3-3-3-1-1-1-1-1-1-3-3-3-3-|

          (2:13)
  she       says      she's         dead inside     &   out
D|-------------------------------------------------------------------|
A|-------------------------------------------------------------------|
F|3-3-3-3-3-3-3-3-3-3-3-3-3-3-3-3---5---5---5---5---6---6---6---6----|
C|3-3-3-3-3-3-3-3-3-3-3-3-3-3-3-3---5---5---5---5---6---6---6---6----|
G|1-1-1-1-1-1-1-1-1-1-1-1-1-1-1-1---3---3---3---3---4---4---4---4----|
D|--------------------------------0---0---0---0---0---0---0---0---0--|

Rhythm Under Solo (2:19)
D|----------------------------------------------------------------|
A|----------------------------------------------------------------|
F|--------------------------------3-3-3-3-3-3-3-3-3-3-3-3-3-5-5-5-|
C|--------------------------------3-3-3-3-3-3-3-3-3-3-3-3-3-5-5-5-|    x2
G|--5-5---5\----------------------1-1-1-1-1-1-1-1-1-1-1-1-1-3-3-3-|
D|0-----0-----0-1---1-1-0-1-1-0-----------------------------------|

Solo      (2:19)
D|----------------------------------------------------8---10-|
A|10---10---10---10---10---10--11--10~----10--11--10---------|
F|12b--12b--12b--12b--12b------------------------------------|
C|-----------------------------------------------------------|
G|-----------------------------------------------------------|
D|-----------------------------------------------------------|

          (2:25)
D|10---10---10---10---10---12--13--12~----12--12--12--12--13\-|
A|13b--13b--13b--13b--13b---------------15--15--15--15--------|
F|------------------------------------------------------------|
C|------------------------------------------------------------|
G|------------------------------------------------------------|
D|------------------------------------------------------------|

Chorus 3  (2:32)
  your arms around him & now, you wanna give it away, a-way-ay ay-ay
D|----------------------------------------------------------------|
A|----------------------------------------------------------------|
F|--------------------------------3-3-3-3-3-3-3-3-3-3-3-3-3-5-5-5-|
C|--------------------------3-3-2-3-3-3-3-3-3-3-3-3-3-3-3-3-5-5-5-|
G|--------------------------3-3-2-1-1-1-1-1-1-1-1-1-1-1-1-1-3-3-3-|
D|--------------------------1-1-0---------------------------------|

          (2:38)
  you're barely 20 & now, you wanna give it away, a-way-ay oh-oh
  the boys are waiting, & now you're gunna give it away, a-way-ay ay-ay
  you think you're ready & now you're gunna throw it away, a-way-ay oh-oh
D|----------------------------------------------------------------|
A|----------------------------------------------------------------|
F|--------------------------------3-3-3-3-3-3-3-3-3-3-3-3-3-5-5-5-|
C|--------------------------------3-3-3-3-3-3-3-3-3-3-3-3-3-5-5-5-|    x3
G|--5-5---5\----------------------1-1-1-1-1-1-1-1-1-1-1-1-1-3-3-3-|
D|0-----0-----0-1---1-1-0-1-1-0-----------------------------------|

Outro     (2:57)
  a-way-ay oh-oh, a-way-ay oh-oh, away        away        away       a-way-ay oh-oh 
D|----------------------------------------------------------------------|
A|----------------------------------------------------------------------|
F|--------------------------------3--3--3--3--3--3--3--3--3--3--XXX--3--|
C|--------------------------------3--3--3--3--3--3--3--3--3--3--XXX--3--|
G|--5-5---5\----------------------1--1--1--1--1--1--1--1--1--1--XXX--1--|
D|0-----0-----0-1-0-1-1-0-1-1-0-----------------------------------------|


Tablature Legend
----------------
\     Slide Down
~     Vibrato
X     Mute note
***   Palm mute
b     Bend

(Time:Stamp) included to play along with album version.
Добавлено: 01.06.2013
Другие материалы по этой песне:
  • Аккорды и текст

Страница создана 01.06.2013
http://primanota.ru/die-mannequin/away-chords.htm
Привет, Гость.
Предлагаем пройти революционный курс по гитаре.
Подарок от PrimaNota.Ru, забирай!