PrimaNota.ru - самый крупный в мире бесплатный архив песенных текстов, аккордов, табулатур и нот


Die Happy - Violent Dreams - текст песни, таба, видео

Регистрация Запомнить меня
Войти через:  Facebook Google Twitter Vk Yandex Mail.ru

Die Happy - Violent Dreams - текст песни, таба, видео

Печатать
Просмотров: 159
Уроки эстрадного вокала в Санкт-Петербурге
Intro

E||-------------------|--------------|-------------------|--------------|
B||--------8-----7----|--------------|--------8-----7----|--------------|
G||--------9-----7----|--------------|--------9-----7----|--------------|
D||-----9-----9-------|--------------|-----9-----9-------|--------------|
A||--7----------------|--------------|--7----------------|--------------|
E||-------------------|--------------|-------------------|--------------|

                                                           
-------------------|------------------|-------------------|
--------8-----7----|------------------|--------8-----7----|
--------9-----7----|------------------|--------9-----7----|
-----9-----9-------|------------------|-----9-----9-------|
--7----------------|------7-----------|--7----------------|
-------------------|--10-----0--------|-------------------|

                       
------------------------|
------------------------|
-------------------(12)-|
------------------------|
------7---------(7)-----|
--10-----0--(12)--------|


Riff 1

E||-------------------|------------------------|--------------------|--------------------|
B||--------8-----7----|------------------------|--------------5-----|--------------------|
G||--------9-----7----|-------------------(12)-|-----------------5--|--------------7-----|
D||-----9-----9-------|------------------------|-----------5--------|-----------7-----7--|
A||--7----------------|------7---------(7)-----|--0--2/-3-----------|--3--4/-5-----------|
E||-------------------|--10-----0--(12)--------|--------------------|--------------------|

                          
---------------(12)----|
---------------(12)----|
-----------(12)--------|
-----------------------|
--5-----(7)------------|
-----0-----------------|


Riff 2

E||-----------------------|----------------------|--------------------|
B||-------------5---------|-------5--------------|--------------------|
G||------------------5----|------------5---------|--------7--------7--|
D||-----------------------|-----------------5----|-----------7--------|
A||--0--2/-3--------------|--3-------------------|--4/-5--------5-----|
E||-----------------------|----------------------|--------------------|


Riff 3

E||-------------------|------------------|-------------------|
B||--------8-----7----|------------------|--------8-----7----|
G||--------9-----7----|------------------|--------9-----7----|
D||-----9-----9-------|------------------|-----9-----9-------|
A||--7----------------|------7-----------|--7----------------|
E||-------------------|--10-----0--------|-------------------|

                       
------------------------|
------------------------|
-------------------(12)-|
------------------------|
------7---------(7)-----|
--10-----0--(12)--------|


Chorus 1
										[--3--]
E||--------------------|-----------------------|--------------------|--------------------|
B||--------------------|-----------------------|--------------------|--------------------|
G||-----------7--7--5--|-----------7--7--5--5--|-----------7--7--5--|-----------7--7--5--|
D||--2--2--5--7--7--5--|--2--2--5--7--7--5--5--|--2--2--5--7--7--5--|--2--2--5--7--7--5--|
A||--2--2--5--5--5--3--|--2--2--5--5--5--3--3--|--2--2--5--5--5--3--|--2--2--5--5--5--3--|
E||--0--0--3-----------|--0--0--3--------------|--0--0--3-----------|--0--0--3-----------|


Chorus 2

E||--------------------|-----------------------|--------------------|-----------------------|
B||--------------------|-----------------------|--------------------|-----------------------|
G||-----------7--7--5--|-----------7--7--5--5--|-----------7--7--5--|-----------7--7--7--7--|
D||--2--2--5--7--7--5--|--2--2--5--7--7--5--5--|--2--2--5--7--7--5--|--2--2--5--7--7--7--7--|
A||--2--2--5--5--5--3--|--2--2--5--5--5--3--3--|--2--2--5--5--5--3--|--2--2--5--5--5--5--5--|
E||--0--0--3-----------|--0--0--3--------------|--0--0--3-----------|--0--0--3--------------|


Riff 4

E||-----------------------3------------------------------------------------------|
B||--------------------------0--0h-1p-0--------------1---------------------------|
G||-----------0--------------------------0--------2-----------------0--------0---|
D||--------2-----------------------------------2-----------------2--------4------|
A||-----2-----------------------------------0-----------0--2--3--------5---------|
E||--0-----------0--2--3---------------------------------------------------------|



Song

	        Intro  (1x) / Riff 1 (4x) / Riff 2 (1x)
Chorus 1 (1x) / Riff 3 (1x) / Riff 1 (4x) / Riff 2 (1x)
Chorus 1 (1x) / Riff 4 (2x) / 
Chorus 2 (1x) / Chorus (1x)
Добавлено: 18.04.2012
Вам также может быть интересно:
Другие материалы по этой песне:
  • Аккорды и текст

Страница создана 18.04.2012
http://primanota.ru/die-happy/violent-dreams-chords.htm
Привет, Гость.
Предлагаем пройти революционный курс по гитаре.
Подарок от PrimaNota.Ru, забирай!