PrimaNota.ru - самый крупный в мире бесплатный архив песенных текстов, аккордов, табулатур и нот


Die Fantastischen Vier - Millionen Legionen - аккорды и текст, видео

Регистрация Запомнить меня
Войти через:  Facebook Google Twitter Vk Yandex Mail.ru

Die Fantastischen Vier - Millionen Legionen - аккорды и текст, видео

Печатать
Просмотров: 127
Уроки эстрадного вокала в Санкт-Петербурге
Millionen Legionen
Die Fantastischen Vier
Song: Millionen Legionen 
Band: Die Fantastischen Vier
Album: Millionen Legionen
Year: 1999
Tabber: beranger80@hotmail.com



Intro (0:00)

F# E F# E



Verse (0:28)
F#
Ich werde die Tests bestehen, die mir das Leben stellt
                                          E
Weitergehen, suchen nach dem, was mich am Leben hält
Bin damit nicht allein und werde es nie mehr sein
Weil mich zum erstem Mal seit langer Zeit Verbundenheit befreit
                   F#
Bin ich soweit, fließe in den Äther, in den Kreis ohne Verräter
Früher Schüler, strecke ich mehr und mehr meine Fühler nach dir aus
E
Komm hierher, komm hierher. Herzlich willkommen zuhaus....



Verse (0:59)

F#
Ich bin für dich da, nein, ich bin wegen dir hier
           E
Und für uns beide ist klar, hame wir ein Ziel im Visier
               F#
Dann setze ich alles auf dich, meine Schweiß, mein Blut
          E
Meine Tränen, meine Mut, bis hin zu Trauer und Wut
   F#
Ich werde dir mein Leben geben, weil's nicht anders geht
   E
Fordere dich heraus, mein Einsatz steht
                 F#
Und du findest in mir mit was ich mich verbunden habe
         E
Einen Schatz, den ich mein Leben lang gefunden habe
             F#
Mit jedem Satz bitte ich, benütze mich, stütze dich auf mich
          E
Mit dem Wissen aller Weisen dieser Welt beschütze ich dich
 F#
Wo ich bin stehen sie und wo ich gehe gehen sie
  E
Ich habe sie hergebeten, doch die wenigsten sehen sie
F#
Wir werden erwachen unter falschen Propheten
E
Um als Kinder dieser Erde unser Erbe anzutreten



Verse with Sitar Riff (1:36)

    F#      E      F#      E
e-----------------------------------|
b----------------------7--5----5-4--|
g--6----3-4----6----6---------------|
d-----------------------------------|
a-----------------------------------|
e-----------------------------------|

F#
Ich rufe alle Superhelden, alle großen Meister
E
Alle Highlander, alle Krieger, alle guten Geister
F#
Ale Superfreaks und Auserwählten zu mir ins Hier
E
Ich habe Millionen Legionen hinter mir



Sitar Riff (1:47)

    F#      E      F#      E
e-----------------------------------|
b----------------------7--5----5-4--|
g--6----3-4----6----6---------------|
d-----------------------------------|
a-----------------------------------|
e-----------------------------------|



Verse (2:09)

F#
In den Wogen der Welt wählten wir die wildesten Wellen
E
Bis hin zu innersten Quellen
          F#
Erlebten Lebensstromschnellen, machten uns bereit
E
Wurden Weltenreiter über die Zeit
                    F#
Blieben Wächter der Wahrheit, Surfer des Sandwurms
E
Wir zwei waren die Augen des Sturms
         F#
Wurden Herrscher der Schwingung und das als Nichtschwimmer
E
Denn wir hatten es und halten es noch immer
          F#
Und auch du, Baby, warst schon immer mein Kind
           E
Wir waren Liebende, die ab und zu vor Liebe blind
            F#
Um einander trieben, waren zu verschieden
     E
Als dass es hätte langweilig werden können
              F#
Waren zwei echt gute Spinner, absolute Beginner
E
Wir hatten es und halten es noch immer
F#
Streiften alle Ketten ab, die sonst die Leichtigkeit besiegen
E
Konnten fliegen, ohne Flügel fliegen



Verse with Sitar Riff (2:51)

    F#      E      F#      E
e-----------------------------------|
b----------------------7--5----5-4--|
g--6----3-4----6----6---------------|
d-----------------------------------|
a-----------------------------------|
e-----------------------------------|

F#
Und heute rufst du alle Superhelden, alle großen Meister
E
Alle Highlander, alle Krieger, alle guten Geister
F#
Alle Superfreaks und Auserwählten und mich ins hier
E
Du hast Millionen Legionen hinter dir



Chorus (3:02)

         F#
Ich habe Millionen Legionen hinter mir
          E
Du hast Millionen Legionen hinter dir
         F#
Ich habe Millionen Legionen hinter mir
        E
Du hast Millionen Legionen hinter dir
         F#
Ich habe Millionen Legionen hinter mir
        E
Du hast Millionen Legionen hinter dir
         F#
Ich habe Millionen Legionen hinter mir
        E
Du hast Millionen Legionen hinter dir



Sitar Riff (3:23)

    F#      E      F#      E
e-----------------------------------|
b----------------------7--5----5-4--|
g--6----3-4----6----6---------------|
d-----------------------------------|
a-----------------------------------|
e-----------------------------------|



Verse (3:44)

           F#
Es war die Nacht der Vampire in der Stadt der wilden Tiere
    E
Sie ziehen mich zu sich, wenn ich das Gleichgewicht verliere
          F#
Gehe ich unter und verschmelze mit dieser Masse von Mutanten
E
Seelenloser Wanderer und deren Artverwandten
        F#
Und ich ringe zum Himmel, dass die Stimmung hier umschwingt
         E
Hebe die Hände zu Gott, oder wer immer da rumhängt
F#
Herrscher über mein Leben, dieser Trohn gehört mir
    E
Ich wohne und regiere hier und dann erhebe ich
      F#
Meine Feder zum Schutz gegen den Schmerz
         E
Der vom Schlachtfeld der Liebe zu mir rüber dringt
           F#
Obwohl es scheint, als ob hier jeder trübe Lieder singt
               E
Wasche ich mich rein und betrete neues Land
          F#
Dieser Junge steht am Rand und mit nichts in der Hand
    E
Ohne Angst in den Augen, mit dem Rücken zur Wand



Verse with Sitar Riff (4:22)

    F#      E      F#      E
e-----------------------------------|
b----------------------7--5----5-4--|
g--6----3-4----6----6---------------|
d-----------------------------------|
a-----------------------------------|
e-----------------------------------|

         F#
Und dann ruft er alle Superhelden, alle großen Meister
    E
Alle Highlander, alle Krieger, alle guten Geister
F#
Alle Superfreaks, Auserwählten und er ruft mich
E
Und hat Millionen Legionen hinter sich



Sitar Riff (4:33)

    F#      E      F#      E
e-----------------------------------|
b----------------------7--5----5-4--|
g--6----3-4----6----6---------------|
d-----------------------------------|
a-----------------------------------|
e-----------------------------------|



Chorus (4:54)

         F#
Ich habe Millionen Legionen hinter mir
         E
Ich habe Millionen Legionen hinter mir
         F#
Ich habe Millionen Legionen hinter mir
         E
Ich habe Millionen Legionen hinter mir
         F#
Ich habe Millionen Legionen hinter mir
         E
Ich habe Millionen Legionen hinter mir
         F#
Ich habe Millionen Legionen hinter mir
         E
Ich habe Millionen Legionen hinter mir



Outro (5:15)

F#
    Millionen Legionen
E
    Millionen Legionen
F#
    Millionen Legionen
E
    Millionen Legionen
F#
    Millionen Legionen
E
    Millionen Legionen
F#
    Millionen Legionen
E
    Millionen Legionen



Outro (5:36)

    F#      E      F#      E
e-----------------------------------|
b----------------------7--5----5-4--|
g--6----3-4----6----6---------------|
d-----------------------------------|
a-----------------------------------|
e-----------------------------------|
Добавлено: 12.08.2015
Другие материалы по этой песне:
  • Аккорды и текст

Страница создана 20.08.2014
http://primanota.ru/die-fantastischen-vier/millionen-legionen-chords.htm
Привет, Гость.
Предлагаем пройти революционный курс по гитаре.
Подарок от PrimaNota.Ru, забирай!