PrimaNota.ru - самый крупный в мире бесплатный архив песенных текстов, аккордов, табулатур и нот


Die Fantastischen Vier - Ernten Was Wir Sen - бас-таба, видео

Регистрация Запомнить меня
Войти через:  Facebook Google Twitter Vk Yandex Mail.ru

Die Fantastischen Vier - Ernten Was Wir Sen - бас-таба, видео

Печатать
Просмотров: 134
------------------------------------------------------
|||  Die Fantastischen Vier - Ernten Was Wir Säen  |||
------------------------------------------------------

Tabbeb by: Daniel S. (dpsbass)
Tuning: standard

x: Mute Note

Intro
  1+2+3+4+|1234|1+2+3+4+|1234
G|--------|----|--------|----|
D|--99--99|----|--55--55|----|
A|--------|----|--------|----|
E|77--77--|55--|33--33--|22--|  2x

Strophe 1
  1+2+3+4+|1234|1+2+3+4+|1234
G|--------|----|--------|----|
D|--99--99|----|--55--55|----|
A|--------|----|--------|----|
E|77--77--|55--|33--33--|22--|  8x

Refrain
  1+2+3+4+|1+2+3+4+|1+2+3+4+|1+2+3+4+|
G|--------|--------|--------|--------|
D|----9-9-|--------|----5-5-|--------|
A|--------|--------|--------|--------|
E|7777-7-7|55555555|3333-3-3|22222035|  4x

Strophe 2 (Die Leude Leude gehn ab...)
  1+2+3+4+|1+2+3+4|
G|--------|-------|
D|----99--|-------|
A|--------|-------|
E|7777----|-------|  4x

Die Jungs sind jung und nicht dumm...
  1+2+3+4+|1+2+3+4|
G|--------|-------|
D|----99--|-------|
A|--------|-------|
E|7777--xx|xxxxxxx| 2x (Intonation for Mute Notes like drum)

Nach diesem diesem Prinzip...
  1+2+3+4+|1234|1+2+3+4+|1234
G|--------|----|--------|----|
D|--99----|----|--55----|----|
A|--------|----|--------|----|
E|77--7777|55--|33--3333|22--|

Nur einer einer von ihnen...(Snare)
  1+2+3+4+|1234|1+2+3+4+|1234
G|--------|----|--------|----|
D|--99--99|----|--55--55|----|
A|--------|----|--------|----|
E|77--77--|55--|33--33--|22--|  4x

Refrain
  1+2+3+4+|1+2+3+4+|1+2+3+4+|1+2+3+4+|
G|--------|--------|--------|--------|
D|----9-9-|--------|----5-5-|--------|
A|--------|--------|--------|--------|
E|7777-7-7|55555555|3333-3-3|22222035|  4x

Strophe 3
  1+2+3+4+|1234|1+2+3+4+|1234
G|--------|----|--------|----|
D|--99--99|----|--55--55|----|
A|--------|----|--------|----|
E|77--77--|55--|33--33--|22--|  4x

Ist alles alles nur Show...
  1+2+3+4+|1+2+3+4+|1+2+3+4+|1+2+3+4+|
G|--------|--------|--------|--------|
D|----9-9-|--------|----5-5-|--------|
A|--------|--------|--------|--------|
E|7777-7-7|55555555|3333-3-3|22222035|  2x

Platin-Platten an der Wand...
  1+2+3+4+|1234|1+2+3+4+|1234
G|--------|----|--------|----|
D|--99--99|----|--55--55|----|
A|--------|----|--------|----|
E|77--77--|55--|33--33--|22--|  4x

Letzter Refrain
  1+2+3+4+|1+2+3+4+|1+2+3+4+|1+2+3+4+|
G|--------|--------|--------|--------|
D|----9-9-|--------|----5-5-|--------|
A|--------|--------|--------|--------|
E|7777-7-7|55555555|3333-3-3|22222035|  5x

  1+2+3+4+|1+2+3+4+|
G|--------|--------|
D|----9-9-|--------|
A|--------|--------|
E|7777-7-7|55555555|


Please rate :)
Добавлено: 26.07.2012
Другие материалы по этой песне:

Страница создана 26.07.2012
http://primanota.ru/die-fantastischen-vier/ernten-was-wir-sen-chords.htm
Привет, Гость.
Предлагаем пройти революционный курс по гитаре.
Подарок от PrimaNota.Ru, забирай!