PrimaNota.ru - самый крупный в мире бесплатный архив песенных текстов, аккордов, табулатур и нот


Die Die Die - Year Nine Yeah - таба, видео

Регистрация Запомнить меня
Войти через:  Facebook Google Twitter Vk Yandex Mail.ru

Die Die Die - Year Nine Yeah - таба, видео

Печатать
Просмотров: 116
Die! Die! Die!
Year Nine Yeah
Die! Die! Die!


The fella uses some overdrive pedal (and maybe some distortion im not sure), similar to
a lot of Brit Indie bands tend to be using these days, especially Babyshambles ( on Pipe
I think Pete uses one). I find that the boost setting on a marshall blues breaker with 
turned to full works fine.

This has got to be one of the most simple songs I have ever played or tabbed.
So, there is no point in writing the number of times you strum a chord so for the main
I'll just write the chord and u can figure out how many times u play it.

Intro(overdrive on)
|  --3---------------10--------3-------------10----------------------------------- ----- |
|  --5---------------12--------5-------------12----------------------------------------- |
|  --3---------------10--------3-------------10----------------------------------- ----- |
|  ------------------------------------------------------------------------------------- |
|  ---------------------------------------------------------------------------------- -- |
|  ------------------------------------------------------------------------------------- |

Verse(clean tone on/overdrive off)
When he(or you) stop singing the line, play these riffs
|  ---------------------------------------------------------------------------------- -- |
|  ------------------------------------------------------------------------------------- |
|  ---------------------------------------------------------------------------------- -- |
|  ------------------------------------------------------------------------------------- |
|  ---------------------------------------------------------------------------------- -- |
|  ---7-7-7-7-7-7--3-3-3-3-3-3-3-------------------------------------------------------- |

|  ---------------------------------------------------------------------------------- -- |
|  ------------------------------------------------------------------------------------- |
|  ---------------------------------------------------------------------------------- -- |
|  ------------------------------------------------------------------------------------- |
|  ---------------------------------------------------------------------------------- -- |
|  --7-7-7-7-7--3-3-3-3-3-3-3-3--------------------------------------------------------- |

|  ---------------------------------------------------------------------------------- -- |
|  ------------------------------------------------------------------------------------- |
|  ---------------------------------------------------------------------------------- -- |
|  ------------------------------------------------------------------------------------- |
|  ---------------------------------------------------------------------------------- -- |
|  --9-9-9-9-9--5-5-5-5-5-5-5-5--------------------------------------------------------- |

|  ---------------------------------------------------------------------------------- -- |
|  ------------------------------------------------------------------------------------- |
|  ---------------------------------------------------------------------------------- -- |
|  ------------------------------------------------------------------------------------- |
|  ---------------------------------------------------------------------------------- -- |
|  --5-5-5-5-5--3-3-3-3-3-3-3-3--------------------------------------------------------- |

Chorus (overdrive on)
|  --3---------------10--------3-------------10----------------------------------- ----- |
|  --5---------------12--------5-------------12----------------------------------------- |
|  --3---------------10--------3-------------10----------------------------------- ----- |
|  ------------------------------------------------------------------------------------- |
|  ---------------------------------------------------------------------------------- -- |
|  ------------------------------------------------------------------------------------- |

Verse(clean tone on/overdrive off)
|  ---------------------------------------------------------------------------------- -- |
|  ------------------------------------------------------------------------------------- |
|  ---------------------------------------------------------------------------------- -- |
|  ------------------------------------------------------------------------------------- |
|  ---------------------------------------------------------------------------------- -- |
|  ---7-7-7-7-7-7--3-3-3-3-3-3-3-------------------------------------------------------- |

|  ---------------------------------------------------------------------------------- -- |
|  ------------------------------------------------------------------------------------- |
|  ---------------------------------------------------------------------------------- -- |
|  ------------------------------------------------------------------------------------- |
|  ---------------------------------------------------------------------------------- -- |
|  --7-7-7-7-7--3-3-3-3-3-3-3-3--------------------------------------------------------- |

|  ---------------------------------------------------------------------------------- -- |
|  ------------------------------------------------------------------------------------- |
|  ---------------------------------------------------------------------------------- -- |
|  ------------------------------------------------------------------------------------- |
|  ---------------------------------------------------------------------------------- -- |
|  --9-9-9-9-9--5-5-5-5-5-5-5-5--------------------------------------------------------- |

|  ---------------------------------------------------------------------------------- -- |
|  ------------------------------------------------------------------------------------- |
|  ---------------------------------------------------------------------------------- -- |
|  ------------------------------------------------------------------------------------- |
|  ---------------------------------------------------------------------------------- -- |
|  --5-5-5-5-5--3-3-3-3-3-3-3-3--------------------------------------------------------- |


Chorus (overdrive on)
|  --3---------------10--------3-------------10----------------------------------- ----- |
|  --5---------------12--------5-------------12----------------------------------------- |
|  --3---------------10--------3-------------10----------------------------------- ----- |
|  ------------------------------------------------------------------------------------- |
|  ---------------------------------------------------------------------------------- -- |
|  ------------------------------------------------------------------------------------- |

Break(clean tone/overdrive off)
|  --3---------------10--------3-------------10----------------------------------- ----- |
|  --5---------------12--------5-------------12----------------------------------------- |
|  --3---------------10--------3-------------10----------------------------------- ----- |
|  ------------------------------------------------------------------------------------- |
|  ---------------------------------------------------------------------------------- -- |
|  ------------------------------------------------------------------------------------- |

(Overdrive On)
|  --3---------------10--------3-------------10----------------------------------- ----- |
|  --5---------------12--------5-------------12----------------------------------------- |
|  --3---------------10--------3-------------10----------------------------------- ----- |
|  ------------------------------------------------------------------------------------- |
|  ---------------------------------------------------------------------------------- -- |
|  ------------------------------------------------------------------------------------- |


Neways, I hope the tab is decent, please rate it and if you like Die!Die!Die! or you've
some suggestions then email me on jamesdonaldson@hot-shot.com

Cheers


www.myspace.com/diediedienz
www.diediedie.net
http://www.nzmusic.com/artist.cfm?i=817
http://www.amplifier.co.nz/artist/15705/die_die_die.html
Добавлено: 27.04.2012
Другие материалы по этой песне:
  • Аккорды и текст

Страница создана 18.03.2012
http://primanota.ru/die-die-die/year-nine-yeah-chords.htm
Привет, Гость.
Предлагаем пройти революционный курс по гитаре.
Подарок от PrimaNota.Ru, забирай!