PrimaNota.ru - самый крупный в мире бесплатный архив песенных текстов, аккордов, табулатур и нот


Die Die Die - 155 - таба, бас-таба, видео

Регистрация Запомнить меня
Войти через:  Facebook Google Twitter Vk Yandex Mail.ru

Die Die Die - 155 - таба, бас-таба, видео

Печатать
Просмотров: 147
Уроки эстрадного вокала в Санкт-Петербурге
Die! Die! Die!
155
Locust Weeks EP


The fella uses some overdrive pedal (and maybe some distortion im not sure), similar to
a lot of Brit Indie bands tend to be using these days, especially Babyshambles ( on Pipe
I think Pete uses one). I find that the boost setting on a marshall blues breaker with 
turned to full works fine.

Intro/Verse
|  --7-7-7-7-7-7-7-7-7-7-7-7-7-7-7-7----5-5-5-5-5-5-5-5-5-5-5-5-5-5-5-5- |
|  --8-8-8-8-8-8-8-8-8-8-8-8-8-8-8-8----6-6-6-6-6-6-6-6-6-6-6-6-6-6-6-6- |
|  --9-9-9-9-9-9-9-9-9-9-9-9-9-9-9-9----7-7-7-7-7-7-7-7-7-7-7-7-7-7-7-7- |
|  --9-9-9-9-9-9-9-9-9-9-9-9-9-9-9-9----7-7-7-7-7-7-7-7-7-7-7-7-7-7-7-7- |
|  --------------------------------------------------------------------- |
|  --------------------------------------------------------------------- |

|  --7-7-7-7-7-7-7-7-7-7-7-7-7-7-7-7----5-5-5-5-5-5-5-5-5-5-5-5-5-5-5-5- |
|  --8-8-8-8-8-8-8-8-8-8-8-8-8-8-8-8----6-6-6-6-6-6-6-6-6-6-6-6-6-6-6-6- |
|  --9-9-9-9-9-9-9-9-9-9-9-9-9-9-9-9----7-7-7-7-7-7-7-7-7-7-7-7-7-7-7-7- |
|  --9-9-9-9-9-9-9-9-9-9-9-9-9-9-9-9----7-7-7-7-7-7-7-7-7-7-7-7-7-7-7-7- |
|  --------------------------------------------------------------------- |
|  --------------------------------------------------------------------- |

|  --7-7-7-7-7-7-7-7-7-7-7-7-7-7-7-7----5-5-5-5-5-5-5-5-5-5-5-5-5-5-5-5- |
|  --8-8-8-8-8-8-8-8-8-8-8-8-8-8-8-8----6-6-6-6-6-6-6-6-6-6-6-6-6-6-6-6- |
|  --9-9-9-9-9-9-9-9-9-9-9-9-9-9-9-9----7-7-7-7-7-7-7-7-7-7-7-7-7-7-7-7- |
|  --9-9-9-9-9-9-9-9-9-9-9-9-9-9-9-9----7-7-7-7-7-7-7-7-7-7-7-7-7-7-7-7- |
|  --------------------------------------------------------------------- |
|  --------------------------------------------------------------------- |

|  --7-7-7-7-7-7-7-7-7-7-7-7-7-7-7-7----5-5-5-5-5-5-5-5-5-5-5-5-5-5-5-5- |
|  --8-8-8-8-8-8-8-8-8-8-8-8-8-8-8-8----6-6-6-6-6-6-6-6-6-6-6-6-6-6-6-6- |
|  --9-9-9-9-9-9-9-9-9-9-9-9-9-9-9-9----7-7-7-7-7-7-7-7-7-7-7-7-7-7-7-7- |
|  --9-9-9-9-9-9-9-9-9-9-9-9-9-9-9-9----7-7-7-7-7-7-7-7-7-7-7-7-7-7-7-7- |
|  --------------------------------------------------------------------- |
|  --------------------------------------------------------------------- |

|  --7-7-7-7-7-7-7-7-7-7-7-7-7-7-7-7----5-5-5-5-5-5-5-5-5-5-5-5-5-5-5-5- |
|  --8-8-8-8-8-8-8-8-8-8-8-8-8-8-8-8----6-6-6-6-6-6-6-6-6-6-6-6-6-6-6-6- |
|  --9-9-9-9-9-9-9-9-9-9-9-9-9-9-9-9----7-7-7-7-7-7-7-7-7-7-7-7-7-7-7-7- |
|  --9-9-9-9-9-9-9-9-9-9-9-9-9-9-9-9----7-7-7-7-7-7-7-7-7-7-7-7-7-7-7-7- |
|  --------------------------------------------------------------------- |
|  --------------------------------------------------------------------- |

|  --7-7-7-7-7-7-7-7-7-7-7-7-7-7-7-7----5-5-5-5-5-5-5-5-5-5-5-5-5-5-5-5- |
|  --8-8-8-8-8-8-8-8-8-8-8-8-8-8-8-8----6-6-6-6-6-6-6-6-6-6-6-6-6-6-6-6- |
|  --9-9-9-9-9-9-9-9-9-9-9-9-9-9-9-9----7-7-7-7-7-7-7-7-7-7-7-7-7-7-7-7- |
|  --9-9-9-9-9-9-9-9-9-9-9-9-9-9-9-9----7-7-7-7-7-7-7-7-7-7-7-7-7-7-7-7- |
|  --------------------------------------------------------------------- |
|  --------------------------------------------------------------------- |

And sometimes saying goodbye could be so easy,
Well come on, come on, come on, just leave this city,
And she'd do anything for you,
But you'd do nothing for yourself,

Chorus
|  --0-0-0-0-0-0-0-0--0-0-0-0-0-0-0-0--0-0-0-0-0-0-0-0--0-0-0-0-0-0-0-0-0-0-0-0-0- |
|  --0-0-0-0-0-0-0-0--0-0-0-0-0-0-0-0--0-0-0-0-0-0-0-0--0-0-0-0-0-0-0-0-0-0-0-0-0- |
|  --4-4-4-4-4-4-4-4--6-6-6-6-6-6-6-6--9-9-9-9-9-9-9-9--12-12-12-12-12-12-12-12--- |
|  ------------------------------------------------------------------------------- |
|  ------------------------------------------------------------------------------- |
|  ------------------------------------------------------------------------------- |

|  --0-0-0-0-0-0-0-0--0-0-0-0-0-0-0-0--0-0-0-0-0-0-0-0--0-0-0-0-0-0-0-0-0-0-0-0-0- |
|  --0-0-0-0-0-0-0-0--0-0-0-0-0-0-0-0--0-0-0-0-0-0-0-0--0-0-0-0-0-0-0-0-0-0-0-0-0- |
|  --4-4-4-4-4-4-4-4--6-6-6-6-6-6-6-6--9-9-9-9-9-9-9-9--12-12-12-12-12-12-12-12--- |
|  ------------------------------------------------------------------------------- |
|  ------------------------------------------------------------------------------- |
|  ------------------------------------------------------------------------------- |

|  --0-0-0-0-0-0-0-0--0-0-0-0-0-0-0-0--0-0-0-0-0-0-0-0--0-0-0-0-0-0-0-0-0-0-0-0-0- |
|  --0-0-0-0-0-0-0-0--0-0-0-0-0-0-0-0--0-0-0-0-0-0-0-0--0-0-0-0-0-0-0-0-0-0-0-0-0- |
|  --4-4-4-4-4-4-4-4--2-2-2-2-2-2-2-2--9-9-9-9-9-9-9-9--12-12-12-12-12-12-12-12--- |
|  ------------------------------------------------------------------------------- |
|  ------------------------------------------------------------------------------- |
|  ------------------------------------------------------------------------------- |

|  --0-0-0-0-0-0-0-0--0-0-0-0-0-0-0-0--0-0-0-0-0-0-0-0--0-0-0-0-0-0-0-0-0-0-0-0-0- |
|  --0-0-0-0-0-0-0-0--0-0-0-0-0-0-0-0--0-0-0-0-0-0-0-0--0-0-0-0-0-0-0-0-0-0-0-0-0- |
|  --4-4-4-4-4-4-4-4--6-6-6-6-6-6-6-6--9-9-9-9-9-9-9-9--12-12-12-12-12-12-12-12--- |
|  ------------------------------------------------------------------------------- |
|  ------------------------------------------------------------------------------- |
|  ------------------------------------------------------------------------------- |

Sometimes its just the company in which you keep,
Bad company,
Bad Company,
And sometimes you're just not the best judge of character, not at all
Bad company, Bad company, Bad company, Bad company,

Pre-Verse

|  --0-0--5-5--0-0--5-5--0-0--5-5--0-0--5-5- |
|  --0-0--6-6--0-0--6-6--0-0--6-6--0-0--6-6- |
|  --0-0--7-7--0-0--7-7--0-0--7-7--0-0--7-7- |
|  --0-0--7-7--0-0--7-7--0-0--7-7--0-0--7-7- |
|  ----------------------------------------- |
|  ----------------------------------------- |

Verse
|  --7-7-7-7-7-7-7-7-7-7-7-7-7-7-7-7----5-5-5-5-5-5-5-5-5-5-5-5-5-5-5-5- |
|  --8-8-8-8-8-8-8-8-8-8-8-8-8-8-8-8----6-6-6-6-6-6-6-6-6-6-6-6-6-6-6-6- |
|  --9-9-9-9-9-9-9-9-9-9-9-9-9-9-9-9----7-7-7-7-7-7-7-7-7-7-7-7-7-7-7-7- |
|  --9-9-9-9-9-9-9-9-9-9-9-9-9-9-9-9----7-7-7-7-7-7-7-7-7-7-7-7-7-7-7-7- |
|  --------------------------------------------------------------------- |
|  --------------------------------------------------------------------- |

|  --7-7-7-7-7-7-7-7-7-7-7-7-7-7-7-7----5-5-5-5-5-5-5-5-5-5-5-5-5-5-5-5- |
|  --8-8-8-8-8-8-8-8-8-8-8-8-8-8-8-8----6-6-6-6-6-6-6-6-6-6-6-6-6-6-6-6- |
|  --9-9-9-9-9-9-9-9-9-9-9-9-9-9-9-9----7-7-7-7-7-7-7-7-7-7-7-7-7-7-7-7- |
|  --9-9-9-9-9-9-9-9-9-9-9-9-9-9-9-9----7-7-7-7-7-7-7-7-7-7-7-7-7-7-7-7- |
|  --------------------------------------------------------------------- |
|  --------------------------------------------------------------------- |

|  --7-7-7-7-7-7-7-7-7-7-7-7-7-7-7-7----5-5-5-5-5-5-5-5-5-5-5-5-5-5-5-5- |
|  --8-8-8-8-8-8-8-8-8-8-8-8-8-8-8-8----6-6-6-6-6-6-6-6-6-6-6-6-6-6-6-6- |
|  --9-9-9-9-9-9-9-9-9-9-9-9-9-9-9-9----7-7-7-7-7-7-7-7-7-7-7-7-7-7-7-7- |
|  --9-9-9-9-9-9-9-9-9-9-9-9-9-9-9-9----7-7-7-7-7-7-7-7-7-7-7-7-7-7-7-7- |
|  --------------------------------------------------------------------- |
|  --------------------------------------------------------------------- |

|  --7-7-7-7-7-7-7-7-7-7-7-7-7-7-7-7----5-5-5-5-5-5-5-5-5-5-5-5-5-5-5-5- |
|  --8-8-8-8-8-8-8-8-8-8-8-8-8-8-8-8----6-6-6-6-6-6-6-6-6-6-6-6-6-6-6-6- |
|  --9-9-9-9-9-9-9-9-9-9-9-9-9-9-9-9----7-7-7-7-7-7-7-7-7-7-7-7-7-7-7-7- |
|  --9-9-9-9-9-9-9-9-9-9-9-9-9-9-9-9----7-7-7-7-7-7-7-7-7-7-7-7-7-7-7-7- |
|  --------------------------------------------------------------------- |
|  --------------------------------------------------------------------- |

The space in which you leased in my head,
Has now gone and dead,
The space in which you leased in my head,
Has now gone and dead,

Chorus
|  --0-0-0-0-0-0-0-0--0-0-0-0-0-0-0-0--0-0-0-0-0-0-0-0--0-0-0-0-0-0-0-0-0-0-0-0-0- |
|  --0-0-0-0-0-0-0-0--0-0-0-0-0-0-0-0--0-0-0-0-0-0-0-0--0-0-0-0-0-0-0-0-0-0-0-0-0- |
|  --4-4-4-4-4-4-4-4--6-6-6-6-6-6-6-6--9-9-9-9-9-9-9-9--12-12-12-12-12-12-12-12--- |
|  ------------------------------------------------------------------------------- |
|  ------------------------------------------------------------------------------- |
|  ------------------------------------------------------------------------------- |

|  --0-0-0-0-0-0-0-0--0-0-0-0-0-0-0-0--0-0-0-0-0-0-0-0--0-0-0-0-0-0-0-0-0-0-0-0-0- |
|  --0-0-0-0-0-0-0-0--0-0-0-0-0-0-0-0--0-0-0-0-0-0-0-0--0-0-0-0-0-0-0-0-0-0-0-0-0- |
|  --4-4-4-4-4-4-4-4--6-6-6-6-6-6-6-6--9-9-9-9-9-9-9-9--12-12-12-12-12-12-12-12--- |
|  ------------------------------------------------------------------------------- |
|  ------------------------------------------------------------------------------- |
|  ------------------------------------------------------------------------------- |

|  --0-0-0-0-0-0-0-0--0-0-0-0-0-0-0-0--0-0-0-0-0-0-0-0--0-0-0-0-0-0-0-0-0-0-0-0-0- |
|  --0-0-0-0-0-0-0-0--0-0-0-0-0-0-0-0--0-0-0-0-0-0-0-0--0-0-0-0-0-0-0-0-0-0-0-0-0- |
|  --4-4-4-4-4-4-4-4--2-2-2-2-2-2-2-2--9-9-9-9-9-9-9-9--12-12-12-12-12-12-12-12--- |
|  ------------------------------------------------------------------------------- |
|  ------------------------------------------------------------------------------- |
|  ------------------------------------------------------------------------------- |

|  --0-0-0-0-0-0-0-0--0-0-0-0-0-0-0-0--0-0-0-0-0-0-0-0--0-0-0-0-0-0-0-0-0-0-0-0-0- |
|  --0-0-0-0-0-0-0-0--0-0-0-0-0-0-0-0--0-0-0-0-0-0-0-0--0-0-0-0-0-0-0-0-0-0-0-0-0- |
|  --4-4-4-4-4-4-4-4--6-6-6-6-6-6-6-6--9-9-9-9-9-9-9-9--12-12-12-12-12-12-12-12--- |
|  ------------------------------------------------------------------------------- |
|  ------------------------------------------------------------------------------- |
|  ------------------------------------------------------------------------------- |

Sometimes its just the company in which you keep,
Bad company,
Bad Company,
And sometimes your just not the best judge of character, not at all
Bad company, Bad company, Bad company, Bad company,

Bridge
|  
|
|  
|
|  
|
|  
|
|  
|
|  
|

Verse
|  --7-7-7-7-7-7-7-7-7-7-7-7-7-7-7-7----5-5-5-5-5-5-5-5-5-5-5-5-5-5-5-5- |
|  --8-8-8-8-8-8-8-8-8-8-8-8-8-8-8-8----6-6-6-6-6-6-6-6-6-6-6-6-6-6-6-6- |
|  --9-9-9-9-9-9-9-9-9-9-9-9-9-9-9-9----7-7-7-7-7-7-7-7-7-7-7-7-7-7-7-7- |
|  --9-9-9-9-9-9-9-9-9-9-9-9-9-9-9-9----7-7-7-7-7-7-7-7-7-7-7-7-7-7-7-7- |
|  --------------------------------------------------------------------- |
|  --------------------------------------------------------------------- |

|  --7-7-7-7-7-7-7-7-7-7-7-7-7-7-7-7----5-5-5-5-5-5-5-5-5-5-5-5-5-5-5-5- |
|  --8-8-8-8-8-8-8-8-8-8-8-8-8-8-8-8----6-6-6-6-6-6-6-6-6-6-6-6-6-6-6-6- |
|  --9-9-9-9-9-9-9-9-9-9-9-9-9-9-9-9----7-7-7-7-7-7-7-7-7-7-7-7-7-7-7-7- |
|  --9-9-9-9-9-9-9-9-9-9-9-9-9-9-9-9----7-7-7-7-7-7-7-7-7-7-7-7-7-7-7-7- |
|  --------------------------------------------------------------------- |
|  --------------------------------------------------------------------- |

|  --7-7-7-7-7-7-7-7-7-7-7-7-7-7-7-7----5-5-5-5-5-5-5-5-5-5-5-5-5-5-5-5- |
|  --8-8-8-8-8-8-8-8-8-8-8-8-8-8-8-8----6-6-6-6-6-6-6-6-6-6-6-6-6-6-6-6- |
|  --9-9-9-9-9-9-9-9-9-9-9-9-9-9-9-9----7-7-7-7-7-7-7-7-7-7-7-7-7-7-7-7- |
|  --9-9-9-9-9-9-9-9-9-9-9-9-9-9-9-9----7-7-7-7-7-7-7-7-7-7-7-7-7-7-7-7- |
|  --------------------------------------------------------------------- |
|  --------------------------------------------------------------------- |

|  --7-7-7-7-7-7-7-7-7-7-7-7-7-7-7-7----5-5-5-5-5-5-5-5-5-5-5-5-5-5-5-5- |
|  --8-8-8-8-8-8-8-8-8-8-8-8-8-8-8-8----6-6-6-6-6-6-6-6-6-6-6-6-6-6-6-6- |
|  --9-9-9-9-9-9-9-9-9-9-9-9-9-9-9-9----7-7-7-7-7-7-7-7-7-7-7-7-7-7-7-7- |
|  --9-9-9-9-9-9-9-9-9-9-9-9-9-9-9-9----7-7-7-7-7-7-7-7-7-7-7-7-7-7-7-7- |
|  --------------------------------------------------------------------- |
|  --------------------------------------------------------------------- |

|  --7-7-7-7-7-7-7-7-7-7-7-7-7-7-7-7----5-5-5-5-5-5-5-5-5-5-5-5-5-5-5-5- |
|  --8-8-8-8-8-8-8-8-8-8-8-8-8-8-8-8----6-6-6-6-6-6-6-6-6-6-6-6-6-6-6-6- |
|  --9-9-9-9-9-9-9-9-9-9-9-9-9-9-9-9----7-7-7-7-7-7-7-7-7-7-7-7-7-7-7-7- |
|  --9-9-9-9-9-9-9-9-9-9-9-9-9-9-9-9----7-7-7-7-7-7-7-7-7-7-7-7-7-7-7-7- |
|  --------------------------------------------------------------------- |
|  --------------------------------------------------------------------- |

|  --7-7-7-7-7-7-7-7-7-7-7-7-7-7-7-7----5-5-5-5-5-5-5-5-5-5-5-5-5-5-5-5- |
|  --8-8-8-8-8-8-8-8-8-8-8-8-8-8-8-8----6-6-6-6-6-6-6-6-6-6-6-6-6-6-6-6- |
|  --9-9-9-9-9-9-9-9-9-9-9-9-9-9-9-9----7-7-7-7-7-7-7-7-7-7-7-7-7-7-7-7- |
|  --9-9-9-9-9-9-9-9-9-9-9-9-9-9-9-9----7-7-7-7-7-7-7-7-7-7-7-7-7-7-7-7- |
|  --------------------------------------------------------------------- |
|  --------------------------------------------------------------------- |

You see I've been doing a whole lot of dreaming,
And these keep on going through my head,
And sometimes saying goodbye could be so easy,
Well come on, come on, come on, just leave this city,

Chorus
|  --0-0-0-0-0-0-0-0--0-0-0-0-0-0-0-0--0-0-0-0-0-0-0-0--0-0-0-0-0-0-0-0-0-0-0-0-0- |
|  --0-0-0-0-0-0-0-0--0-0-0-0-0-0-0-0--0-0-0-0-0-0-0-0--0-0-0-0-0-0-0-0-0-0-0-0-0- |
|  --4-4-4-4-4-4-4-4--6-6-6-6-6-6-6-6--9-9-9-9-9-9-9-9--12-12-12-12-12-12-12-12--- |
|  ------------------------------------------------------------------------------- |
|  ------------------------------------------------------------------------------- |
|  ------------------------------------------------------------------------------- |

|  --0-0-0-0-0-0-0-0--0-0-0-0-0-0-0-0--0-0-0-0-0-0-0-0--0-0-0-0-0-0-0-0-0-0-0-0-0- |
|  --0-0-0-0-0-0-0-0--0-0-0-0-0-0-0-0--0-0-0-0-0-0-0-0--0-0-0-0-0-0-0-0-0-0-0-0-0- |
|  --4-4-4-4-4-4-4-4--6-6-6-6-6-6-6-6--9-9-9-9-9-9-9-9--12-12-12-12-12-12-12-12--- |
|  ------------------------------------------------------------------------------- |
|  ------------------------------------------------------------------------------- |
|  ------------------------------------------------------------------------------- |

|  --0-0-0-0-0-0-0-0--0-0-0-0-0-0-0-0--0-0-0-0-0-0-0-0--0-0-0-0-0-0-0-0-0-0-0-0-0- |
|  --0-0-0-0-0-0-0-0--0-0-0-0-0-0-0-0--0-0-0-0-0-0-0-0--0-0-0-0-0-0-0-0-0-0-0-0-0- |
|  --4-4-4-4-4-4-4-4--2-2-2-2-2-2-2-2--9-9-9-9-9-9-9-9--12-12-12-12-12-12-12-12--- |
|  ------------------------------------------------------------------------------- |
|  ------------------------------------------------------------------------------- |
|  ------------------------------------------------------------------------------- |

|  --0-0-0-0-0-0-0-0--0-0-0-0-0-0-0-0--0-0-0-0-0-0-0-0--0-0-0-0-0-0-0-0-0-0-0-0-0- |
|  --0-0-0-0-0-0-0-0--0-0-0-0-0-0-0-0--0-0-0-0-0-0-0-0--0-0-0-0-0-0-0-0-0-0-0-0-0- |
|  --4-4-4-4-4-4-4-4--6-6-6-6-6-6-6-6--9-9-9-9-9-9-9-9--12-12-12-12-12-12-12-12--- |
|  ------------------------------------------------------------------------------- |
|  ------------------------------------------------------------------------------- |
|  ------------------------------------------------------------------------------- |

Sometimes its just the company in which you keep,
Bad company,
Bad Company,
And sometimes your just not the best judge of character, not at all
Bad company, Bad company, Bad company, Bad company,

Neways, I hope the tab is decent, please rate it and if you like Die!Die!Die! or you've
some suggestions then email me on jamesdonaldson@hot-shot.com

Cheers

www.myspace.com/diediedienz
www.diediedie.net
http://www.nzmusic.com/artist.cfm?i=817
http://www.amplifier.co.nz/artist/15705/die_die_die.html
Добавлено: 15.04.2012
Другие материалы по этой песне:
  • Аккорды и текст

Страница создана 15.04.2012
http://primanota.ru/die-die-die/155-chords.htm
Привет, Гость.
Предлагаем пройти революционный курс по гитаре.
Подарок от PrimaNota.Ru, забирай!