PrimaNota.ru - самый крупный в мире бесплатный архив песенных текстов, аккордов, табулатур и нот


Die Arzte - Grace Kelly - таба, бас-таба, видео

Регистрация Запомнить меня
Войти через:  Facebook Google Twitter Vk Yandex Mail.ru

Die Arzte - Grace Kelly - таба, бас-таба, видео

Печатать
Просмотров: 229
Уроки эстрадного вокала в Санкт-Петербурге
Grace Kelly
Die Ärzte Früher
(1989)

CHORDS:

   Am    Em     F     G     C     E    C*
e|--0--|--0--|--1--|--3--|-----|-----|--0--|
B|--1--|--0--|--1--|--3--|--5--|--9--|--1--|
G|--2--|--0--|--2--|--4--|--5--|--9--|--0--|
D|--2--|--2--|--3--|--5--|--5--|--9--|--2--|
A|--0--|--2--|--3--|--5--|--3--|--7--|--3--|
E|-----|--0--|--1--|--3--|-----|-----|-----|
INTRO + BRIDGE:

  Am                Em             3x  F                 G
e|-----------------|-----------------|-1---------------|-3---------------|
B|*------------1-1-|-0-0------------*|-1---------------|-3---------------|
G|---------2-2-----|-----0-0---------|-2---------------|-4---------------|
D|-----2-2---------|---------2-2-----|-3---------------|-5---------------|
A|*0-0-------------|-------------2-2*|-3---------------|-5---------------|
E|-----------------|-----------------|-1---------------|-3---------------|
  P.M.------------------------------|
 
STROPHEn Anschlag:

  C                                   E
e|-----------------|-----------------|-----------------|-----------------|
B|-----5-------5---|-----5-------5---|-----9-------9---|-----9-------9---|
G|-----5-------5---|-----5-------5---|-----9-------9---|-----9-------9---|
D|-----5-------5---|-----5-------5---|-----9-------9---|-----9-------9---|
A|-----3-------3---|-----3-------3---|-----7-------7---|-----7-------7---|
E|-----------------|-----------------|-----------------|-----------------|

  F                 G
e|-------1---------|-------3---------|
B|-------1---------|-------3---------|
G|-----2-2---2-----|-----4-4---4-----|
D|-3---3-----3-3---|-5---5-----5-5---|
A|-3-----------3---|-5-----------5---|
E|-1-----------1---|-3-----------3---|


C                          E
  Es war in Monaco letztes Jahr
                               F    G
Ich strich ihr zärtlich über's Haar
C                                        E
  Sie sah auf die Uhr, dann sah sie mich an:
                                       F            G
"Es ist schon spät, ich muss zurück zu meinem Mann!


PRE-CHORUS:

C         D        E
  Und ich ließ sie geh'n.
F                   
  Warum habe ich sie gehen lassen?
G
  Dafür werde ich mich immer hassen.


REFRAIN:

C*                  e           F                G
  Grace Kelly, pass auf, in der Kurve lauert der Tod.
C*                  e           F
  Grace Kelly, pass auf, in der Kurve lauert der Tod.


STROPHE:

C                                   E
  So fuhr sie davon, und sie war so schön!
                                       F      G
Ich hab' sie als letzter noch lebend gesehen...
C                                       E
  Sie winkte noch einmal mit der linken Hand,
                                  F      G
Bevor sie um die nächste Kurve verschwand.


PRE-CHORUS:

C           D        E
  Jetzt war alles zu spät.
F                 
  Grace Kelly, verlass mich nicht.
G
  Wie soll ich leben ohne Dich?


REFRAIN:

C*                  e           F                G
  Grace Kelly, pass auf, in der Kurve lauert der Tod.
C*                  e           F
  Grace Kelly, pass auf, in der Kurve lauert der Tod.


BRIDGE: (mit INTRO-Riff)

a                  e                  a
  Wir hatten schon Pläne, wegen einer Scheidung
                     e                a
Doch am nächsten Tag las ich's in der Zeitung
                  e                  a
Eine Welt stürzte ein, wie ein Kartenhaus
                  F         G
Ich brach auf der Stelle in Tränen aus


PRE-CHORUS:

C         D           E
  Und das Volk weinte mit mir.
F
  Warum hat Gott das zugelassen?
G
  Ich kann es immer noch nicht fassen.


REFRAIN:

C*                e                    F                    G              C
  Grace Kelly ist tot, Grace Kelly ist tot, Grace Kelly ist tot, Grace Kelly ist tot.
....
...

END:
                   Am
...Grace Kelly ist tot.
Добавлено: 15.05.2015
Другие материалы по этой песне:

Страница создана 18.03.2012
http://primanota.ru/die-arzte/grace-kelly-chords.htm
Привет, Гость.
Предлагаем пройти революционный курс по гитаре.
Подарок от PrimaNota.Ru, забирай!